project

01234567891011121314151617181920212223
E
B
G
D
A
E
B
0 1 2 3 4 5 6 7 8 9 10 11 12 13 14 15 16 17 18 19 20 21 22 23
(/) Slide Up  (\) Slide Down  (h) Hammer On  (p) Pull Off  (b) Bend (r) Release (v) Vibrato

Stave 1:

E|--|:------------------9---------------10------------------9------7--12--------------------5--5-----5--4--------------------------------7--7-----5--5--7--4--------------------------5--5-----5--4-----------4--5--------
B|--|:--12--10--12--10----------------------14--15--14--12-----12------------------------------------------7--5--7--------------------------------------------7--5-----------------------------------7--5--7--------------
G|--|:---------------------11---------------------------------------------------------4--6--------------------------6--6--------4--6--7-----------------------------------------4--6--------------------------------------
D|--|:-----------------------------------------------------------------------------7-----------------------------------------------------------------------------------------7--------------------------------------------
A|--|:--------------------------------------------------------------------------------------------------------------------------------------------------------------------------------------------------------------------
E|--|:--------------------------------------------------------------------------------------------------------------------------------------------------------------------------------------------------------------------

Stave 2:

E|--4-----4--5--------4--5--4--5h7--5--4--------
B|-----7-----------7----------------------7--5--
G|----------------------------------------------
D|----------------------------------------------
A|----------------------------------------------
E|----------------------------------------------

							http://www.guitartabcreator.com
Chords

Instruments
{"strings":[[["|:",".",".",".",".",9,".","_","_","_",10,".",".",".",".",9,".",7,12,"_","_","_",".",".",".",5,5,"_",5,4,".",".",".",".",".","_","_",".",".",".",7,7,"_",5,5,7,4,".",".","_","_","_","_","_","_",5,5,"_",5,4,"_","_","_",4,5,"_","_"],["|:",12,10,12,10,".",".","_","_","_",".",14,15,14,12,".",12,".",".","_","_","_",".",".",".",".",".","_",".",".",7,5,7,".",".","_","_",".",".",".",".",".","_",".",".",".",".",7,5,"_","_","_","_","_","_","_","_","_","_","_",7,5,7,"_","_","_","_"],["|:",".",".",".",".",".",11,"_","_","_",".",".",".",".",".",".",".",".",".","_","_","_",".",4,6,".",".","_",".",".",".",".",".",6,6,"_","_",4,6,7,".",".","_",".",".",".",".",".",".","_","_","_","_",4,6,"_","_","_","_","_","_","_","_","_","_","_","_"],["|:",".",".",".",".",".",".","_","_","_",".",".",".",".",".",".",".",".",".","_","_","_",7,".",".",".",".","_",".",".",".",".",".",".",".","_","_",".",".",".",".",".","_",".",".",".",".",".",".","_","_","_",7,"_","_","_","_","_","_","_","_","_","_","_","_","_","_"],["|:",".",".",".",".",".",".","_","_","_",".",".",".",".",".",".",".",".",".","_","_","_",".",".",".",".",".","_",".",".",".",".",".",".",".","_","_",".",".",".",".",".","_",".",".",".",".",".",".","_","_","_","_","_","_","_","_","_","_","_","_","_","_","_","_","_","_"],["|:",".",".",".",".",".",".","_","_","_",".",".",".",".",".",".",".",".",".","_","_","_",".",".",".",".",".","_",".",".",".",".",".",".",".","_","_",".",".",".",".",".","_",".",".",".",".",".",".","_","_","_","_","_","_","_","_","_","_","_","_","_","_","_","_","_","_"]],[[4,"_",4,5,"_","_",4,5,4,5,"h",7,5,4,"_","_"],[".",7,"_","_","_",7,"_","_","_","_","_","_","_","_",7,5],[".","_","_","_","_","_","_","_","_","_","_","_","_","_","_","_"],[".","_","_","_","_","_","_","_","_","_","_","_","_","_","_","_"],[".","_","_","_","_","_","_","_","_","_","_","_","_","_","_","_"],[".","_","_","_","_","_","_","_","_","_","_","_","_","_","_","_"]]],"numberofstrings":6,"notes":["E","B","G","D","A","E","B"],"capo":0,"stringnotes":["E4","B3","G3","D3","A2","E2"],"comments":["Stave 1:","Stave 2:"],"timing":[["W","W","W","W","W","W","W","W","W","W","W","W","W","W","W","W","W","W","W","W","W","W","W","W","W","W","W","W","W","W","W","W","W","W","W","W","W","W","W","W","W","W","W","W","W","W","W","W","W","W","W","W","W","W","W","W","W","W","W","W","W","W","W","W","W","W","W"],["W","W","W","W","W","W","W","W","W","W","W","W","W","W","W","W","W"]],"timingvisible":false,"tabcounter":16,"stave":1,"totalstaves":2,"instrument":"6guitar","selectedtuning":"6_standard","version":"13"}

Member for

2 days 11 hours
About Me
e
Submitted by notUrmom on Mon, 2022-01-17 09:17