sweep etude

Chords

01234567891011121314151617181920212223
E
B
G
D
A
E
B
0 1 2 3 4 5 6 7 8 9 10 11 12 13 14 15 16 17 18 19 20 21 22 23
(/) Slide Up  (\) Slide Down  (h) Hammer On  (p) Pull Off  (b) Bend (r) Release (v) Vibrato


A:
		Am7			Am7			G7			G7
E|-------------------------------------------------|-------------------------------------------------
B|-------------------------------------------------|-------------------------------------------------
G|----------12-14-12----------------12-14-12-------|----------10-12-10----------------10-12-10-------
D|-------14----------14----------14----------14----|-------12----------12----------12----------12----
A|-12-15----------------15-12-15----------------15-|-10-14----------------14-10-14----------------14-
E|-------------------------------------------------|-------------------------------------------------

		Fmaj7		Fmaj7			E7		E7
E|-------------------------------------------|-------------------------------------
B|-------------------------------------------|-------------------------------------
G|---------9-10-9---------------9-10-9-------|--------7-9-7-------------7-9-7------
D|------10--------10---------10--------10----|------9-------9---------9-------9----
A|-8-12--------------12-8-12--------------12-|-7-11-----------11-7-11-----------11-
E|-------------------------------------------|-------------------------------------

		Am7			Am7			G7			G7
E|-------------------------------------------------|-------------------------------------------------
B|-------------------------------------------------|-------------------------------------------------
G|----------12-14-12----------------12-14-12-------|----------10-12-10----------------10-12-10-------
D|-------14----------14----------14----------14----|-------12----------12----------12----------12----
A|-12-15----------------15-12-15----------------15-|-10-14----------------14-10-14----------------14-
E|-------------------------------------------------|-------------------------------------------------

		Fmaj7		Fmaj7			E7		E7
E|-------------------------------------------|-------------------------------------
B|-------------------------------------------|-------------------------------------
G|---------9-10-9---------------9-10-9-------|--------7-9-7-------------7-9-7------
D|------10--------10---------10--------10----|------9-------9---------9-------9----
A|-8-12--------------12-8-12--------------12-|-7-11-----------11-7-11-----------11-
E|-------------------------------------------|-------------------------------------

B:
		Dm7			Dm7			Cmaj7		Cmaj7
E|-------------------------------------------------|-------------------------------------------
B|-------------------------------------------------|-------------------------------------------
G|-------------------------------------------------|-------------------------------------------
D|----------10-12-10----------------10-12-10-------|---------9-10-9---------------9-10-9-------
A|-------12----------12----------12----------12----|------10--------10---------10--------10----
E|-10-13----------------13-10-13----------------13-|-8-12--------------12-8-12--------------12-

		Dm7			Dm7			E7		E7
E|-------------------------------------------------|-------------------------------------
B|-------------------------------------------------|-------------------------------------
G|-------------------------------------------------|--------7-9-7-------------7-9-7------
D|----------10-12-10----------------10-12-10-------|------9-------9---------9-------9----
A|-------12----------12----------12----------12----|-7-11-----------11-7-11-----------11-
E|-10-13----------------13-10-13----------------13-|-------------------------------------

		Fmaj7		Fmaj7			G7			G7
E|-------------------------------------------|-------------------------------------------------
B|-------------------------------------------|-------------------------------------------------
G|---------9-10-9---------------9-10-9-------|----------10-12-10----------------10-12-10-------
D|------10--------10---------10--------10----|-------12----------12----------12----------12----
A|-8-12--------------12-8-12--------------12-|-10-14----------------14-10-14----------------14-
E|-------------------------------------------|-------------------------------------------------

		Am7			Am7			Bdim7			Bdim7
E|-------------------------------------------------|-------------------------------------------------
B|-------------------------------------------------|-------------------------------------------------
G|----------12-14-12----------------12-14-12-------|----------13-16-13----------------13-16-13-------
D|-------14----------14----------14----------14----|-------15----------15----------15----------15----
A|-12-15----------------15-12-15----------------15-|-14-17----------------17-14-17----------------17-
E|-------------------------------------------------|-------------------------------------------------

							http://www.guitartabcreator.com
Instruments
{"strings":[[[".",".",".",".",".",".",".",".",".",".",".",".",".",".",".",".","|",".",".",".",".",".",".",".",".",".",".",".",".",".",".",".","."],[".",".",".",".",".",".",".",".",".",".",".",".",".",".",".",".","|",".",".",".",".",".",".",".",".",".",".",".",".",".",".",".","."],[".",".",".",12,14,12,".",".",".",".",".",12,14,12,".",".","|",".",".",".",10,12,10,".",".",".",".",".",10,12,10,".","."],[".",".",14,".",".",".",14,".",".",".",14,".",".",".",14,".","|",".",".",12,".",".",".",12,".",".",".",12,".",".",".",12,"."],[12,15,".",".",".",".",".",15,12,15,".",".",".",".",".",15,"|",10,14,".",".",".",".",".",14,10,14,".",".",".",".",".",14],[".",".",".",".",".",".",".",".",".",".",".",".",".",".",".",".","|",".",".",".",".",".",".",".",".",".",".",".",".",".",".",".","."]],[[".",".",".",".",".",".",".",".",".",".",".",".",".",".",".",".","|",".",".",".",".",".",".",".",".",".",".",".",".",".",".",".","."],[".",".",".",".",".",".",".",".",".",".",".",".",".",".",".",".","|",".",".",".",".",".",".",".",".",".",".",".",".",".",".",".","."],[".",".",".",9,10,9,".",".",".",".",".",9,10,9,".",".","|",".",".",".",7,9,7,".",".",".",".",".",7,9,7,".","."],[".",".",10,".",".",".",10,".",".",".",10,".",".",".",10,".","|",".",".",9,".",".",".",9,".",".",".",9,".",".",".",9,"."],[8,12,".",".",".",".",".",12,8,12,".",".",".",".",".",12,"|",7,11,".",".",".",".",".",11,7,11,".",".",".",".",".",11],[".",".",".",".",".",".",".",".",".",".",".",".",".",".",".",".","|",".",".",".",".",".",".",".",".",".",".",".",".",".",".",".","."]],[[".",".",".",".",".",".",".",".",".",".",".",".",".",".",".",".","|",".",".",".",".",".",".",".",".",".",".",".",".",".",".",".","."],[".",".",".",".",".",".",".",".",".",".",".",".",".",".",".",".","|",".",".",".",".",".",".",".",".",".",".",".",".",".",".",".","."],[".",".",".",12,14,12,".",".",".",".",".",12,14,12,".",".","|",".",".",".",10,12,10,".",".",".",".",".",10,12,10,".","."],[".",".",14,".",".",".",14,".",".",".",14,".",".",".",14,".","|",".",".",12,".",".",".",12,".",".",".",12,".",".",".",12,"."],[12,15,".",".",".",".",".",15,12,15,".",".",".",".",".",15,"|",10,14,".",".",".",".",".",14,10,14,".",".",".",".",".",14],[".",".",".",".",".",".",".",".",".",".",".",".",".",".",".",".","|",".",".",".",".",".",".",".",".",".",".",".",".",".",".",".","."]],[[".",".",".",".",".",".",".",".",".",".",".",".",".",".",".",".","|",".",".",".",".",".",".",".",".",".",".",".",".",".",".",".","."],[".",".",".",".",".",".",".",".",".",".",".",".",".",".",".",".","|",".",".",".",".",".",".",".",".",".",".",".",".",".",".",".","."],[".",".",".",9,10,9,".",".",".",".",".",9,10,9,".",".","|",".",".",".",7,9,7,".",".",".",".",".",7,9,7,".","."],[".",".",10,".",".",".",10,".",".",".",10,".",".",".",10,".","|",".",".",9,".",".",".",9,".",".",".",9,".",".",".",9,"."],[8,12,".",".",".",".",".",12,8,12,".",".",".",".",".",12,"|",7,11,".",".",".",".",".",11,7,11,".",".",".",".",".",11],[".",".",".",".",".",".",".",".",".",".",".",".",".",".",".",".","|",".",".",".",".",".",".",".",".",".",".",".",".",".",".",".","."]],[[".",".",".",".",".",".",".",".",".",".",".",".",".",".",".",".","|",".",".",".",".",".",".",".",".",".",".",".",".",".",".",".","."],[".",".",".",".",".",".",".",".",".",".",".",".",".",".",".",".","|",".",".",".",".",".",".",".",".",".",".",".",".",".",".",".","."],[".",".",".",".",".",".",".",".",".",".",".",".",".",".",".",".","|",".",".",".",".",".",".",".",".",".",".",".",".",".",".",".","."],[".",".",".",10,12,10,".",".",".",".",".",10,12,10,".",".","|",".",".",".",9,10,9,".",".",".",".",".",9,10,9,".","."],[".",".",12,".",".",".",12,".",".",".",12,".",".",".",12,".","|",".",".",10,".",".",".",10,".",".",".",10,".",".",".",10,"."],[10,13,".",".",".",".",".",13,10,13,".",".",".",".",".",13,"|",8,12,".",".",".",".",".",12,8,12,".",".",".",".",".",12]],[[".",".",".",".",".",".",".",".",".",".",".",".",".",".",".",".","|",".",".",".",".",".",".",".",".",".",".",".",".",".",".",".","."],[".",".",".",".",".",".",".",".",".",".",".",".",".",".",".",".","|",".",".",".",".",".",".",".",".",".",".",".",".",".",".",".","."],[".",".",".",".",".",".",".",".",".",".",".",".",".",".",".",".","|",".",".",".",7,9,7,".",".",".",".",".",7,9,7,".","."],[".",".",".",10,12,10,".",".",".",".",".",10,12,10,".",".","|",".",".",9,".",".",".",9,".",".",".",9,".",".",".",9,"."],[".",".",12,".",".",".",12,".",".",".",12,".",".",".",12,".","|",7,11,".",".",".",".",".",11,7,11,".",".",".",".",".",11],[10,13,".",".",".",".",".",13,10,13,".",".",".",".",".",13,"|",".",".",".",".",".",".",".",".",".",".",".",".",".",".",".","."]],[[".",".",".",".",".",".",".",".",".",".",".",".",".",".",".",".","|",".",".",".",".",".",".",".",".",".",".",".",".",".",".",".","."],[".",".",".",".",".",".",".",".",".",".",".",".",".",".",".",".","|",".",".",".",".",".",".",".",".",".",".",".",".",".",".",".","."],[".",".",".",9,10,9,".",".",".",".",".",9,10,9,".",".","|",".",".",".",10,12,10,".",".",".",".",".",10,12,10,".","."],[".",".",10,".",".",".",10,".",".",".",10,".",".",".",10,".","|",".",".",12,".",".",".",12,".",".",".",12,".",".",".",12,"."],[8,12,".",".",".",".",".",12,8,12,".",".",".",".",".",12,"|",10,14,".",".",".",".",".",14,10,14,".",".",".",".",".",14],[".",".",".",".",".",".",".",".",".",".",".",".",".",".",".",".","|",".",".",".",".",".",".",".",".",".",".",".",".",".",".",".","."]],[[".",".",".",".",".",".",".",".",".",".",".",".",".",".",".",".","|",".",".",".",".",".",".",".",".",".",".",".",".",".",".",".","."],[".",".",".",".",".",".",".",".",".",".",".",".",".",".",".",".","|",".",".",".",".",".",".",".",".",".",".",".",".",".",".",".","."],[".",".",".",12,14,12,".",".",".",".",".",12,14,12,".",".","|",".",".",".",13,16,13,".",".",".",".",".",13,16,13,".","."],[".",".",14,".",".",".",14,".",".",".",14,".",".",".",14,".","|",".",".",15,".",".",".",15,".",".",".",15,".",".",".",15,"."],[12,15,".",".",".",".",".",15,12,15,".",".",".",".",".",15,"|",14,17,".",".",".",".",".",17,14,17,".",".",".",".",".",17],[".",".",".",".",".",".",".",".",".",".",".",".",".",".",".",".","|",".",".",".",".",".",".",".",".",".",".",".",".",".",".",".","."]]],"numberofstrings":6,"notes":["E","B","G","D","A","E","B"],"capo":0,"stringnotes":["E4","B3","G3","D3","A2","E2"],"comments":["Stave 1:","Stave 2:","Stave 3:","Stave 4:","Stave 5:","Stave 6:","Stave 7:","Stave 8:"],"timing":[["W","W","W","W","W","W","W","W","W","W","W","W","W","W","W","W",null,"W","W","W","W","W","W","W","W","W","W","W","W","W","W","W","W"],["W","W","W","W","W","W","W","W","W","W","W","W","W","W","W","W",null,"W","W","W","W","W","W","W","W","W","W","W","W","W","W","W","W"],["W","W","W","W","W","W","W","W","W","W","W","W","W","W","W","W",null,"W","W","W","W","W","W","W","W","W","W","W","W","W","W","W","W"],["W","W","W","W","W","W","W","W","W","W","W","W","W","W","W","W",null,"W","W","W","W","W","W","W","W","W","W","W","W","W","W","W","W"],["W","W","W","W","W","W","W","W","W","W","W","W","W","W","W","W",null,"W","W","W","W","W","W","W","W","W","W","W","W","W","W","W","W"],["W","W","W","W","W","W","W","W","W","W","W","W","W","W","W","W",null,"W","W","W","W","W","W","W","W","W","W","W","W","W","W","W","W"],["W","W","W","W","W","W","W","W","W","W","W","W","W","W","W","W",null,"W","W","W","W","W","W","W","W","W","W","W","W","W","W","W","W"],["W","W","W","W","W","W","W","W","W","W","W","W","W","W","W","W",null,"W","W","W","W","W","W","W","W","W","W","W","W","W","W","W","W"]],"timingvisible":false,"tabcounter":33,"stave":7,"totalstaves":8,"instrument":"6guitar","selectedtuning":"6_standard","version":"13"}

Member for

1 week 5 days
Submitted by nottaj on Thu, 2020-11-19 09:49