Drunken Sailor

01234567891011121314151617181920212223
E
B
G
D
A
E
B
0 1 2 3 4 5 6 7 8 9 10 11 12 13 14 15 16 17 18 19 20 21 22 23
(/) Slide Up  (\) Slide Down  (h) Hammer On  (p) Pull Off  (b) Bend (r) Release (v) Vibrato

Stave 1:

E|-0----0-0-0----0-0-0------1-0----3----3-3-3----3-3-3-------------0----0-0-0----0-0-0----2-3-5----3-0-------------------
B|----------------------------------------------------------0-3-------------------------------------------3-0------------
G|------------------------2-------------------------------0------------------------------------------------------2-------
D|-----------------------------------------------------------------------------------------------------------------------
A|-----------------------------------------------------------------------------------------------------------------------
E|-----------------------------------------------------------------------------------------------------------------------

Stave 2:

E|------0-------0-------0-0--------0---------------------------------------0-------0----0-0----2-3-5----3-0---------------------
B|-2-----------------------------1------3-------3-------3-3---------0-3----------------------------------------3-0--------------
G|-----------------------------2-------------------------------0------------------------------------------------------2-------2-
D|------------------------------------------------------------------------------------------------------------------------------
A|------------------------------------------------------------------------------------------------------------------------------
E|------------------------------------------------------------------------------------------------------------------------------

Stave 3:

E|-0----0-0-0----0-0-0--------0------------------------------------0----0-0-0----0-0-0----2----3----5----3----0--------------------
B|--------------------------1------3----3-3-3----3-3-3------0-3----------------------------------------------------3-0-------------
G|------------------------2-------------------------------0------------------------------------------------------------------------
D|---------------------------------------------------------------------------------------------------------------------------------
A|---------------------------------------------------------------------------------------------------------------------------------
E|---------------------------------------------------------------------------------------------------------------------------------

Stave 4:

E|-----------0----0----0-0--------------0------------------------------------
B|---------------------------------1---------3-------3----3-3---------0----3-
G|-2----2---------------------2----------------------------------0-----------
D|---------------------------------------------------------------------------
A|---------------------------------------------------------------------------
E|---------------------------------------------------------------------------

							http://www.guitartabcreator.com
Chords

Instruments
{"strings":[[[0,"_",0,0,0,"_",0,0,0,"_",".",1,0,"_",3,"_",3,3,3,"_",3,3,3,"_",".",".",".","_",0,"_",0,0,0,"_",0,0,0,"_",2,3,5,"_",3,0,"_",".",".","_",".","_","_"],[".","_",".",".",".","_",".",".",".","_",".",".",".","_",".","_",".",".",".","_",".",".",".","_",".",0,3,"_",".","_",".",".",".","_",".",".",".","_",".",".",".","_",".",".","_",3,0,"_",".","_","_"],[".","_",".",".",".","_",".",".",".","_",2,".",".","_",".","_",".",".",".","_",".",".",".","_",0,".",".","_",".","_",".",".",".","_",".",".",".","_",".",".",".","_",".",".","_",".",".","_",2,"_","_"],[".","_",".",".",".","_",".",".",".","_",".",".",".","_",".","_",".",".",".","_",".",".",".","_",".",".",".","_",".","_",".",".",".","_",".",".",".","_",".",".",".","_",".",".","_",".",".","_",".","_","_"],[".","_",".",".",".","_",".",".",".","_",".",".",".","_",".","_",".",".",".","_",".",".",".","_",".",".",".","_",".","_",".",".",".","_",".",".",".","_",".",".",".","_",".",".","_",".",".","_",".","_","_"],[".","_",".",".",".","_",".",".",".","_",".",".",".","_",".","_",".",".",".","_",".",".",".","_",".",".",".","_",".","_",".",".",".","_",".",".",".","_",".",".",".","_",".",".","_",".",".","_",".","_","_"]],[[".","_",0,"_","_",0,"_","_",0,0,"_",".",".",0,"_",".","_","_",".","_","_",".",".","_",".","_",".",".","_",0,"_","_",0,"_",0,0,"_",2,3,5,"_",3,0,"_",".",".","_",".","_","_","."],[2,"_",".","_","_",".","_","_",".",".","_",".",1,".","_",3,"_","_",3,"_","_",3,3,"_",".","_",0,3,"_",".","_","_",".","_",".",".","_",".",".",".","_",".",".","_",3,0,"_",".","_","_","."],[".","_",".","_","_",".","_","_",".",".","_",2,".",".","_",".","_","_",".","_","_",".",".","_",0,"_",".",".","_",".","_","_",".","_",".",".","_",".",".",".","_",".",".","_",".",".","_",2,"_","_",2],[".","_",".","_","_",".","_","_",".",".","_",".",".",".","_",".","_","_",".","_","_",".",".","_",".","_",".",".","_",".","_","_",".","_",".",".","_",".",".",".","_",".",".","_",".",".","_",".","_","_","."],[".","_",".","_","_",".","_","_",".",".","_",".",".",".","_",".","_","_",".","_","_",".",".","_",".","_",".",".","_",".","_","_",".","_",".",".","_",".",".",".","_",".",".","_",".",".","_",".","_","_","."],[".","_",".","_","_",".","_","_",".",".","_",".",".",".","_",".","_","_",".","_","_",".",".","_",".","_",".",".","_",".","_","_",".","_",".",".","_",".",".",".","_",".",".","_",".",".","_",".","_","_","."]],[[0,"_",0,0,0,"_",0,0,0,"_",".",".",0,"_",".","_",".",".",".","_",".",".",".","_",".",".",".","_",0,"_",0,0,0,"_",0,0,0,"_",2,"_",3,"_",5,"_",3,"_",0,"_",".",".","_","_","_","_"],[".","_",".",".",".","_",".",".",".","_",".",1,".","_",3,"_",3,3,3,"_",3,3,3,"_",".",0,3,"_",".","_",".",".",".","_",".",".",".","_",".","_",".","_",".","_",".","_",".","_",3,0,"_","_","_","_"],[".","_",".",".",".","_",".",".",".","_",2,".",".","_",".","_",".",".",".","_",".",".",".","_",0,".",".","_",".","_",".",".",".","_",".",".",".","_",".","_",".","_",".","_",".","_",".","_",".",".","_","_","_","_"],[".","_",".",".",".","_",".",".",".","_",".",".",".","_",".","_",".",".",".","_",".",".",".","_",".",".",".","_",".","_",".",".",".","_",".",".",".","_",".","_",".","_",".","_",".","_",".","_",".",".","_","_","_","_"],[".","_",".",".",".","_",".",".",".","_",".",".",".","_",".","_",".",".",".","_",".",".",".","_",".",".",".","_",".","_",".",".",".","_",".",".",".","_",".","_",".","_",".","_",".","_",".","_",".",".","_","_","_","_"],[".","_",".",".",".","_",".",".",".","_",".",".",".","_",".","_",".",".",".","_",".",".",".","_",".",".",".","_",".","_",".",".",".","_",".",".",".","_",".","_",".","_",".","_",".","_",".","_",".",".","_","_","_","_"]],[[".","_",".","_",0,"_",0,"_",0,0,"_",".","_",".","_",0,"_",".","_","_",".","_",".",".","_",".","_",".","_","."],[".","_",".","_",".","_",".","_",".",".","_",".","_",1,"_",".","_",3,"_","_",3,"_",3,3,"_",".","_",0,"_",3],[2,"_",2,"_",".","_",".","_",".",".","_",2,"_",".","_",".","_",".","_","_",".","_",".",".","_",0,"_",".","_","."],[".","_",".","_",".","_",".","_",".",".","_",".","_",".","_",".","_",".","_","_",".","_",".",".","_",".","_",".","_","."],[".","_",".","_",".","_",".","_",".",".","_",".","_",".","_",".","_",".","_","_",".","_",".",".","_",".","_",".","_","."],[".","_",".","_",".","_",".","_",".",".","_",".","_",".","_",".","_",".","_","_",".","_",".",".","_",".","_",".","_","."]]],"numberofstrings":6,"notes":["E","B","G","D","A","E","B"],"capo":0,"stringnotes":["E4","B3","G3","D3","A2","E2"],"comments":["Stave 1:","Stave 2:","Stave 3:","Stave 4:"],"timing":[[null,null,null,null,null,null,null,null,null,null,null,null,null,null,null,null,null,null,null,null,null,null,null,null,null,null,null,null,null,null,null,null,null,null,null,null,null,null,null,null,null,null,null,null,null,null,null,null,null],[null,null,null,null,null,null,null,null,null,null,null,null,null,null,null,null,null,null,null,null,null,null,null,null,null,null,null,null,null,null,null,null,null,null,null,null,null,null,null,null,null,null,null,null,null,null,null,null,null,null,null],[null,null,null,null,null,null,null,null,null,null,null,null,null,null,null,null,null,null,null,null,null,null,null,null,null,null,null,null,null,null,null,null,null,null,null,null,null,null,null,null,null,null,null,null,null,null,null,null,null,null],[null,null,null,null,null,null,null,null,null,null,null,null,null,null,null,null,null,null,null,null,null,null,null,null,null,null,null,null,null,null]],"timingvisible":false,"tabcounter":30,"stave":3,"totalstaves":4,"instrument":"6guitar","selectedtuning":"6_standard","version":"13"}

Member for

1 week 5 days
Submitted by NotReallyZero on Mon, 2021-02-22 05:13