Sound will begin in 5 seconds

The re-stoned Old times

01234567891011121314151617181920212223
E
B
G
D
A
E
B
0 1 2 3 4 5 6 7 8 9 10 11 12 13 14 15 16 17 18 19 20 21 22 23
Song Science #1: How Pros Use 6 Chords to Write Hit Songs
(/) Slide Up  (\) Slide Down  (h) Hammer On  (p) Pull Off  (b) Bend (r) Release (v) Vibrato

Stave 1:

E|------------------------------------------------------
B|--------------------------------8--8--8--8--10h---10--
G|--------5-----3--------5-----3------------------------
D|--3--5-----6-----3--5-----6---------------------------
A|------------------------------------------------------
E|------------------------------------------------------

Stave 2:

E|---------------------------------------------------------------11------
B|-----------9--11--13--9--11--13--11--11--9--11--13--9--11--13------13--
G|-----------------------------------------------------------------------
D|-----------------------------------------------------------------------
A|-----------------------------------------------------------------------
E|--1--1--1--------------------------------------------------------------

Stave 3:

E|----------------------------------------------------------------------------
B|----------------------------------------------------------------------------
G|----------------------------------------------------------------------------
D|----------------------------------------------------------------------------
A|--------------------------------------------------9--11h---9--7--9h---7--4--
E|--12--10--10--5--3--0--0--12--10--10--5--3--0--0----------------------------

Stave 4:

E|-----------------
B|--------------9--
G|--6--6--6--6-----
D|-----------------
A|-----------------
E|-----------------

http://www.guitartabcreator.com
Guitar Tab Creator is intended to store guitar tab created through the tool. It currently does not support in-line text editing. Any text you place in here will be lost. If you need to comment on your tab, please use the "Tab Notes" section located below.