Sweet Home Alabama Intro

Chords

01234567891011121314151617181920212223
E
B
G
D
A
E
B
0 1 2 3 4 5 6 7 8 9 10 11 12 13 14 15 16 17 18 19 20 21 22 23
(/) Slide Up  (\) Slide Down  (h) Hammer On  (p) Pull Off  (b) Bend (r) Release (v) Vibrato

Stave 1:

E|-----------------|-----------------|-----------------|-----------------------
B|--------3--------|--------3--------|-----------------|-----------------------
G|-----------2-----|-----------0-----|--------0--0-----|------------0-----0h2--
D|--0--0-----------|-----------------|-----------------|-------0h2-----2-------
A|-----------------|--3--3-----------|-----------------|--0h2------------------
E|-----------------|-----------------|--3--3-----------|-----------------------

Stave 2:

E|-----------------|-----------------|-----------------|-----------------------
B|-----------------|-----------------|-----------------|-----------------------
G|-----------------|-----------------|-----------------|--2p0--0--4p0--0--5b7--
D|-----------------|-----------------|-----------------|-----------------------
A|-----------------|-----------------|-----------------|-----------------------
E|-----------------|-----------------|-----------------|-----------------------

							http://www.guitartabcreator.com
Instruments
{"strings":[[[".",".",".",".","_","|",".",".",".",".","_","|",".",".",".",".","_","|",".",".",".",".",".",".",".",".",".",".","."],[".",".",3,".","_","|",".",".",3,".","_","|",".",".",".",".","_","|",".",".",".",".",".",".",".",".",".",".","."],[".",".",".",2,"_","|",".",".",".",0,"_","|",".",".",0,0,"_","|",".",".",".",".",".",".",0,".",0,"h",2],[0,0,".",".","_","|",".",".",".",".","_","|",".",".",".",".","_","|",".",".",".",0,"h",2,".",2,".",".","."],[".",".",".",".","_","|",3,3,".",".","_","|",".",".",".",".","_","|",0,"h",2,".",".",".",".",".",".",".","."],[".",".",".",".","_","|",".",".",".",".","_","|",3,3,".",".","_","|",".",".",".",".",".",".",".",".",".",".","."]],[["_","_","_","_","_","|","_","_","_","_","_","|","_","_","_","_","_","|",".",".",".",".",".",".",".",".",".",".","."],["_","_","_","_","_","|","_","_","_","_","_","|","_","_","_","_","_","|",".",".",".",".",".",".",".",".",".",".","."],["_","_","_","_","_","|","_","_","_","_","_","|","_","_","_","_","_","|",2,"p",0,0,4,"p",0,0,5,"b",7],["_","_","_","_","_","|","_","_","_","_","_","|","_","_","_","_","_","|",".",".",".",".",".",".",".",".",".",".","."],["_","_","_","_","_","|","_","_","_","_","_","|","_","_","_","_","_","|",".",".",".",".",".",".",".",".",".",".","."],["_","_","_","_","_","|","_","_","_","_","_","|","_","_","_","_","_","|",".",".",".",".",".",".",".",".",".",".","."]]],"numberofstrings":6,"notes":["E","B","G","D","A","E","B"],"capo":0,"stringnotes":["E4","B3","G3","D3","A2","E2"],"comments":["Stave 1:","Stave 2:"],"timing":[["W","W","W","W",null,null,"W","W","W","W",null,null,"W","W","W","W",null,null,"W","W","W","W",null,"W","W","W","W",null,"W"],[null,null,null,null,null,null,null,null,null,null,null,null,null,null,null,null,null,null,"W",null,"W","W","W","W","W","W","W",null,"W"]],"timingvisible":false,"tabcounter":29,"stave":0,"totalstaves":2,"instrument":"6guitar","selectedtuning":"6_standard","version":"13"}

Member for

1 week 4 days
Submitted by Notcha on Thu, 2020-11-19 14:28