Sound will begin in 5 seconds

Snow

01234567891011121314151617181920212223
E
B
G
D
A
E
B
0 1 2 3 4 5 6 7 8 9 10 11 12 13 14 15 16 17 18 19 20 21 22 23
Song Science #1: How Pros Use 6 Chords to Write Hit Songs
(/) Slide Up  (\) Slide Down  (h) Hammer On  (p) Pull Off  (b) Bend (r) Release (v) Vibrato

Stave 1:

F|----------------------------------------------------
C|----------------------------------------------------
G|----------------------------------------------------
D|----0-0-0-0-0-0-7-7-7-7-7-7-4-4-4-4-4-4-4-4-4-4-4-4-

Stave 2:

F|----------------16----------------16----------------16----------------16-
C|-18-18-18-18-18----18-18-18-18-18----16-16-16-16-16----16-16-16-16-16----
G|-------------------------------------------------------------------------
D|-------------------------------------------------------------------------

Stave 3:

F|-p---------------16----------------16----------------16----
C|--18-18-18-18-18----16-16-16-16-16----18-18-18-18-18----16-
G|-----------------------------------------------------------
D|-----------------------------------------------------------

Stave 4:

F|-------------------------------------------------------------------------------------------------
C|-------------------------------------------------------------------------------------------------
G|-------------------------------------------------------------------------------------------------
D|-0-0-0-0-0-0-0-0-0-0-0-0-7-7-7-7-7-7-7-7-7-7-7-7-4-4-4-4-4-4-4-4-4-4-4-4-7-7-7-7-7-7-7-7-7-7-7-7-

Stave 5:

F|----------------------------------------------------------
C|----9-9-9-9-9-9-9-9-9-9-11-9-12-12-12-12-12-12---12-12----
G|----------------------------------------------------------
D|----------------------------------------------------------

Stave 6:

F|--------------------------------------------------------------
C|-9-9-9-9-9-9-9-9-9-9-11-9-13-13-13-13-13-13-14-14-14-13-13-11-
G|--------------------------------------------------------------
D|--------------------------------------------------------------

Stave 7:

F|-----------------------------
C|-9-9-9-9-9-9-9-9-9-9-11-9-13-
G|-----------------------------
D|-----------------------------

Stave 8:

F|-------------------------------------------------
C|-------------------------------------------------
G|-7-7-7-7-7-7-7-7-7-7-7-7-------------------------
D|-------------------------7-7-7-7-7-7-7-7-7-7-7-7-

Stave 9:

F|-------------
C|-------------
G|-7-7-7-7-7-7-
D|-------------

Stave 10:

F|-------------------------------------------------------
C|-------------------------------------------------------
G|-7-7-7-7-------7-7-7-7-7-7-----------------------------
D|---------------------------7-7-7-7-------7-7-7-7-7-7-7-

http://www.guitartabcreator.com
Guitar Tab Creator is intended to store guitar tab created through the tool. It currently does not support in-line text editing. Any text you place in here will be lost. If you need to comment on your tab, please use the "Tab Notes" section located below.