Sound will begin in 5 seconds

INFLUX SELF TITLED

Chords
01234567891011121314151617181920212223
E
B
G
D
A
E
B
0 1 2 3 4 5 6 7 8 9 10 11 12 13 14 15 16 17 18 19 20 21 22 23
Song Science #1: How Pros Use 6 Chords to Write Hit Songs
(/) Slide Up  (\) Slide Down  (h) Hammer On  (p) Pull Off  (b) Bend (r) Release (v) Vibrato

Stave 1:

D|-----------------------------------------------------------------
A|-----------------------------------------------------------------
F|-----------------------------------------------------------------
C|-------------------------5-------------------------------5-------
G|-----8-8-5-5-----8-8-5-5---8-8-5-----7-7-4-4-----7-7-4-4---7-7-4-
C|-0-0---------0-0-----------------0-0---------0-0-----------------

Stave 2:

D|-----------------------------------------------------------------------
A|-----------------------------8---------------------------------8-------
F|-----10-10-7-7-----10-10-7-7---10-10-7-----9-9-6-6-----9-9-6-6---9-9-6-
C|-----------------------------------------------------------------------
G|-----------------------------------------------------------------------
C|-0-0-----------0-0---------------------0-0---------0-0-----------------

Stave 3:

D|-----------------------------------------------------------------
A|-----------------------------------------------------------------
F|-----------------------------------------------------------------
C|-----------------------------------------------------------------
G|-----------------------------------------------------------------
C|-1p0-0-0-0-0-0-0-1p0-0-0-0-0-0-0-1p0-0-0-0-0-0-0-3-3-3-6-6-6-5-5-

Stave 4:

D|-------------------------------------------------------------------------------------------------------
A|-------------------------------------------------------------------------------------------------------
F|-------------------------------------------------------------------------------------------------------
C|-------------------------------------------------------------------------------------------------------
G|-------------------------------------------------------------------------------------------------------
C|-9-9-9-9-8-8-8-8-9-9-9-9-8-8-8-7-7-8-8-7-7-8-8-7-7-8-8-7-7-8-8-9-9-10-10-10-10-10-10-10-10-10-10-10-10-

Stave 5:

D|-----------------------------------------------------
A|-----------------------------------------------------
F|-----------------------------------------------------
C|-----------------------------------------------------
G|-----------------------------------------------------
C|-0-0-13-12-0-7-8-7-0-2-3-2-0-0-13-12-0-7-8-7-0-2-3-2-

Stave 6:

D|-------------------------------------------------------------------------
A|-------------------------------------------------------------------------
F|-----10-10-7-7-----10-10-7-7-------------10-10-7-7-----10-10-7-7---------
C|-------------------------------------------------------------------------
G|-----8--8--5-5-----8--8--5-5-------------8--8--5-5-----8--8--5-5---------
C|-0-0-----------0-0-----------0-0-0-0-0-0-----------0-0-----------0-0-0-0-

Stave 7:

D|-----------------------------
A|-----10-10---------10-10-----
F|-----10-10-7-7-----10-10-7-7-
C|-----------0-0-----------0-0-
G|-----------------------------
C|-0-0-----------0-0---------0-

http://www.guitartabcreator.com
Guitar Tab Creator is intended to store guitar tab created through the tool. It currently does not support in-line text editing. Any text you place in here will be lost. If you need to comment on your tab, please use the "Tab Notes" section located below.