Leaves from the vine

Chords

01234567891011121314151617181920212223
E
B
G
D
A
E
B
0 1 2 3 4 5 6 7 8 9 10 11 12 13 14 15 16 17 18 19 20 21 22 23
(/) Slide Up  (\) Slide Down  (h) Hammer On  (p) Pull Off  (b) Bend (r) Release (v) Vibrato

Stave 1:

E|------------------------------------------------------------------------------------------
B|------------------------------------------------------------------------------------------
G|--9-----9--7--4\6--------9--9--7--4\6--------6-----6--7--6--4--2-----6--6--6--4--2--------
D|--7----------------------7-------------------0--------------------------------------------
A|--0----------------------0----------------------------------------------------------------
E|------------------------------------------------------------------------------------------

Stave 2:

E|-----------------------------------------------------------------------------------------
B|-----------------------------------------------------------------------------------------
G|--9-----9--7--4\6v--------9--9--7--4\6v--------6-----6--7--6--4--2-----6--6--6--4--2-----
D|--7-----------------------7--------------------0-----------------------0-----------------
A|--0-----------------------0-----------------------------------------------------------0--
E|-----------------------------------------------------------------------------------------

							http://www.guitartabcreator.com
Instruments
{"strings":[[[".","_",".",".",".",".",".","_","_",".",".",".",".",".",".","_","_",".","_",".",".",".",".",".","_",".",".",".",".",".","_","_"],[".","_",".",".",".",".",".","_","_",".",".",".",".",".",".","_","_",".","_",".",".",".",".",".","_",".",".",".",".",".","_","_"],[9,"_",9,7,4,"\\",6,"_","_",9,9,7,4,"\\",6,"_","_",6,"_",6,7,6,4,2,"_",6,6,6,4,2,"_","_"],[7,"_",".",".",".",".",".","_","_",7,".",".",".",".",".","_","_",0,"_",".",".",".",".",".","_",".",".",".",".",".","_","_"],[0,"_",".",".",".",".",".","_","_",0,".",".",".",".",".","_","_",".","_",".",".",".",".",".","_",".",".",".",".",".","_","_"],[".","_",".",".",".",".",".","_","_",".",".",".",".",".",".","_","_",".","_",".",".",".",".",".","_",".",".",".",".",".","_","_"]],[[".","_",".",".",".",".",".",".","_","_",".",".",".",".",".",".",".","_","_",".","_",".",".",".",".",".","_",".",".",".",".",".","."],[".","_",".",".",".",".",".",".","_","_",".",".",".",".",".",".",".","_","_",".","_",".",".",".",".",".","_",".",".",".",".",".","."],[9,"_",9,7,4,"\\",6,"v","_","_",9,9,7,4,"\\",6,"v","_","_",6,"_",6,7,6,4,2,"_",6,6,6,4,2,"."],[7,"_",".",".",".",".",".",".","_","_",7,".",".",".",".",".",".","_","_",0,"_",".",".",".",".",".","_",0,".",".",".",".","."],[0,"_",".",".",".",".",".",".","_","_",0,".",".",".",".",".",".","_","_",".","_",".",".",".",".",".","_",".",".",".",".",".",0],[".","_",".",".",".",".",".",".","_","_",".",".",".",".",".",".",".","_","_",".","_",".",".",".",".",".","_",".",".",".",".",".","."]]],"numberofstrings":6,"notes":["E","B","G","D","A","E","B"],"capo":0,"stringnotes":["E4","B3","G3","D3","A2","E2"],"comments":["Stave 1:","Stave 2:"],"timing":[["W",null,"W","W","W",null,"W",null,null,"W","W","W","W",null,"W",null,null,"W",null,"W","W","W","W","W","W","W","W","W","W","W",null,null,null,null,"W"],["W",null,"W","W","W",null,"W",null,null,null,"W","W","W","W",null,"W",null,null,null,"W",null,"W","W","W","W","W",null,"W","W","W","W","W","W"]],"timingvisible":false,"tabcounter":33,"stave":1,"totalstaves":2,"instrument":"6guitar","selectedtuning":"6_standard","version":"13"}

Member for

1 week
Submitted by nolan on Tue, 2020-06-30 11:31