Sound will begin in 5 seconds

Remorseless Dreams

01234567891011121314151617181920212223
E
B
G
D
A
E
B
0 1 2 3 4 5 6 7 8 9 10 11 12 13 14 15 16 17 18 19 20 21 22 23
Song Science #1: How Pros Use 6 Chords to Write Hit Songs
(/) Slide Up  (\) Slide Down  (h) Hammer On  (p) Pull Off  (b) Bend (r) Release (v) Vibrato

Stave 1:

E|-------------------------------------------------------------------------------------------
B|-0-5-7-0-5-8-0-5-7-0-5-8-7--------------------------------------------------12-12b10-13-17-
G|---------------------------7/9\5/9v------------------------------------12-9----------------
D|--------------------------------------10-9-7---------------------12-10---------------------
A|---------------------------------------------10-9----------12-10---------------------------
E|--------------------------------------------------10\8/12v---------------------------------

Stave 2:

E|---------------------------------------------------------------------------------------------
B|-13----------13-17-------15-17-18-17-15-13---------------------------------------------------
G|----14----14-------15-17-------------------15-14----14-17v-14-14-----------------------------
D|-------15----------------------------------------15--------------17-17-15-15-12-12----12-15v-
A|-----------------------------------------------------------------------------------15--------
E|---------------------------------------------------------------------------------------------

http://www.guitartabcreator.com
Guitar Tab Creator is intended to store guitar tab created through the tool. It currently does not support in-line text editing. Any text you place in here will be lost. If you need to comment on your tab, please use the "Tab Notes" section located below.