Sound will begin in 5 seconds

wind

Chords
01234567891011121314151617181920212223
E
B
G
D
A
E
B
0 1 2 3 4 5 6 7 8 9 10 11 12 13 14 15 16 17 18 19 20 21 22 23
Song Science #1: How Pros Use 6 Chords to Write Hit Songs
(/) Slide Up  (\) Slide Down  (h) Hammer On  (p) Pull Off  (b) Bend (r) Release (v) Vibrato

Stave 1:

E|--------------------------------
B|--------------------------------
G|--------------------------------
D|--------------------------------
A|--------------------------------
E|--4--3--0--1--0-----0--1--2-----

Stave 2:

E|--------------23--------------------------------23--------------------------------23--------------------------------------------------
B|--------------------------------------------------------------------------------------------------------------------------------------
G|--------------------------------------------------------------------------------------------------------------------------------------
D|--------------------------------------------------------------------------------------------------------------------------------------
A|---------------------5--8--7--8--9---------------------5--8------------------------------5--8--7--8--9--------------------------------
E|--4--3--0--1------0-----------------4--3--0--1------0--------0--1--2--4--3--0--1------0-----------------4--3--0--1--0-----0--1-----2--

Stave 3:

E|-----------------------------------------------------------------------------------------------------------------------------------------------------------
B|-----------------------------------------------------------------------------------------------------------------------------------------------------------
G|-----------------------------------------------------------------------------------------------------------------------------------------------------------
D|-----------------------------------------------------------------------------------------------------------------------------------------------------------
A|--------------------------1-----------------------1-----------------------1--------------------------------1-----------------------1--------------5--2--3--
E|-----------------0--0--0-----0--0--0--0--0--0--0-----0--0--0--0--0--0--0-----0--0--0--0--0--1--2--0--0--0-----0--0--0--0--0--0--0-----0--0--0--0-----------

Stave 4:

E|--------------------------------------------------------------------------------------------------------
B|--------------------------------------------------------------------------------------------------------
G|--------------------------------------------------------------------------------------------------------
D|--------------------------------------------------------------------------------------------------------
A|--6--5--3-----------1-----------------------1-----------------------1--------------3--6-----------9b10--
E|-----------0--0--0-----0--0--0--0--0--0--0-----0--0--0--0--0--0--0-----0--0--0--0--------0--7--0--------

Stave 5:

E|-----------------------------------------------------------------------------------------------
B|-----------------------------------------------------------------------------------------------
G|-----------------------------------------------------------------------------------------------
D|-----------------------------------------------------------------------------------------------
A|-----------1-----------------------1-----------------------1--------------2--2--2-----2--2--2--
E|--0--0--0-----0--0--0--0--0--0--0-----0--0--0--0--0--0--0-----0--0--0--0--0--0--0-----0--0--0--

Stave 6:

E|-----------------------------------------------------------------------------23---------------------
B|----------------------------------------------------------------------------------------------------
G|------------------------------------------------------------------------------------------------12--
D|-----------------------------3-----------------------------3------------------------------------12--
A|-----------1-----------------1-----------------1-----------1------------------------5--8--7-----12--
E|--0--0--0-----------0--0--0-----------0--0--0-----0--0--0--------4--3--0--1------0--------------12--

Stave 7:

E|--------------23-----------------------------------------------23-----------------------
B|----------------------------------------------------------------------------------------
G|----------------------------------------------------------------------------------------
D|----------------------------------------------------------------------------------------
A|---------------------5--8--7-----------7------------------------------5--8--7--6--6--3--
E|--4--3--0--1------0-----------0--0--0-----0--0--0--4--3--0--1------0--------------------

Stave 8:

E|--------------23-----------------------------------------------------------------------
B|---------------------------------------------------------------------------------------
G|---------------------------------------------------------------------------------------
D|---------------------------------------------------9--8--8--5--------------------------
A|---------------------5--8--7-----------7-----------7--6--6--3--2--2--2--3--1--1--1--1--
E|--4--3--0--1------0-----------0--0--0-----0--0--0--------------------------------------

Stave 9:

E|--6--------------23--------------------------------------------------------------
B|--6------------------------------------------------------------------------------
G|--6------------------------------------------------------------------------------
D|--6---------------------------------------------------9--8--8--5--5--4--4--------
A|--6---------------------5--8--7-----------7-----------7--6--6--3--3--2--2--------
E|--6--4--3--0--1------0-----------0--0--0-----0--0--0-----------------------2--1--

Stave 10:

E|------------------
B|------------------
G|------------------
D|--10--9-----------
A|--8---7--2--------
E|------------2--1--

Stave 11:

E|-----------------------------------------------------------------
B|-----------------------------------------------------------------
G|-----------------------------------------------------------------
D|-----------------------------------------------------------------
A|--2--------------2--------------------2--------------2-----------
E|-----2--1-----------2--1--------1--2-----2--1-----------2--1-----

Stave 12:

E|-----------------------------------------------------------------------------------------
B|-----------------------------------------------------------------------------------------
G|--------------------------------------------------------------------------------------0--
D|--------------------------------------------------------------------------------------0--
A|--2-----------------2-----------------2-----------------------2-----------------------0--
E|-----2--1--------------2--1--------------2--1-----1-----1--------2--1-----1-----1-----0--

Stave 13:

E|-----------------------------------------------
B|-----------------------------------------------
G|-----------------------------------------------
D|-----------------------------------------------
A|--2-----5--1--1--2--1--1--4--2--2--4--2--2--5--
E|-----2-----------------------------------------

http://www.guitartabcreator.com
Guitar Tab Creator is intended to store guitar tab created through the tool. It currently does not support in-line text editing. Any text you place in here will be lost. If you need to comment on your tab, please use the "Tab Notes" section located below.