Beach Bums keepaneyeout

Chords

01234567891011121314151617181920212223
E
B
G
D
A
E
B
0 1 2 3 4 5 6 7 8 9 10 11 12 13 14 15 16 17 18 19 20 21 22 23
(/) Slide Up  (\) Slide Down  (h) Hammer On  (p) Pull Off  (b) Bend (r) Release (v) Vibrato

Stave 1:

E|-------------------------------------------------------
B|------10------------10------------10------------10-----
G|----------9-------------9-------------9-------------9--
D|--10------------10------------10------------10---------
A|-------------------------------------------------------
E|-------------------------------------------------------

Stave 2:

E|---------------------------------------------------------------------------------------------------------------
B|----------------------------------------------------8-------------------------------------------8--8--8--8--8--
G|--9--9--10--9-----7-----5-----9--9--10--9-----7-----------9--9--10--9-----7-----5-----9--10--9-----------------
D|---------------------------------------------------------------------------------------------------------------
A|---------------------------------------------------------------------------------------------------------------
E|---------------------------------------------------------------------------------------------------------------

							http://www.guitartabcreator.com
Instruments
{"title":"","strings":[[[".",".",".","_",".",".",".","_",".",".",".","_",".",".","."],[".",10,".","_",".",10,".","_",".",10,".","_",".",10,"."],[".",".",9,"_",".",".",9,"_",".",".",9,"_",".",".",9],[10,".",".","_",10,".",".","_",10,".",".","_",10,".","."],[".",".",".","_",".",".",".","_",".",".",".","_",".",".","."],[".",".",".","_",".",".",".","_",".",".",".","_",".",".","."]],[[".",".",".",".","_",".","_",".","_",".",".",".",".","_",".","_",".","_",".",".",".",".","_",".","_",".","_",".",".",".",".",".",".",".","."],[".",".",".",".","_",".","_",".","_",".",".",".",".","_",".","_",8,"_",".",".",".",".","_",".","_",".","_",".",".",".",8,8,8,8,8],[9,9,10,9,"_",7,"_",5,"_",9,9,10,9,"_",7,"_",".","_",9,9,10,9,"_",7,"_",5,"_",9,10,9,".",".",".",".","."],[".",".",".",".","_",".","_",".","_",".",".",".",".","_",".","_",".","_",".",".",".",".","_",".","_",".","_",".",".",".",".",".",".",".","."],[".",".",".",".","_",".","_",".","_",".",".",".",".","_",".","_",".","_",".",".",".",".","_",".","_",".","_",".",".",".",".",".",".",".","."],[".",".",".",".","_",".","_",".","_",".",".",".",".","_",".","_",".","_",".",".",".",".","_",".","_",".","_",".",".",".",".",".",".",".","."]]],"numberofstrings":6,"notes":["E","B","G","D","A","E","B"],"capo":0,"stringnotes":["E4","B3","G3","D3","A2","E2"],"comments":["Stave 1:","Stave 2:"],"timing":[["W","W","W",null,"W","W","W",null,"W","W","W",null,"W","W","W"],["W","W","W","W","W","W","W","W","W","W","W","W","W","W","W",null,"W",null,"W","W","W","W",null,"W",null,"W",null,"W","W","W","W","W","W","W","W"]],"timingvisible":false,"tabcounter":35,"stave":1,"totalstaves":2,"instrument":"6guitar","selectedtuning":"6_standard","version":"13"}

Member for

2 months 1 week
Submitted by noblew on Thu, 2020-04-02 00:05