Sound will begin in 5 seconds

bopstone guitar

Chords
01234567891011121314151617181920212223
E
B
G
D
A
E
B
0 1 2 3 4 5 6 7 8 9 10 11 12 13 14 15 16 17 18 19 20 21 22 23
Song Science #1: How Pros Use 6 Chords to Write Hit Songs
(/) Slide Up  (\) Slide Down  (h) Hammer On  (p) Pull Off  (b) Bend (r) Release (v) Vibrato

Stave 1:

E|--------------------|-----------6--5--4--|--------------------|-----------6--8---6--|--
B|--------------------|-----------8--7--6--|--------------------|-----------8--9---8--|--
G|--------4-----------|-----------8--7--6--|--------------------|-----------8--10--8--|--
D|--6--------6--------|-----------8--7--6--|--6-----6--------6--|--9--8--6--8--10--8--|--
A|-----8--------6--8--|--------------------|-----8-----6--8-----|---------------------|--
E|--------------------|--7--6--4-----------|--------------------|---------------------|--

Stave 2:

E|--------------------|-----------6--5--4--|--------------------|-----------11--11--11--11--|--
B|--------------------|-----------8--7--6--|--------------------|-----------11--11--11--11--|--
G|--------4-----------|-----------8--7--6--|--------------------|-----------12--12--12--12--|--
D|--6--------6--------|-----------8--7--6--|--6-----6--------6--|--9--8--6--13--13--13--13--|--
A|-----8--------6--8--|--------------------|-----8-----6--8-----|---------------------------|--
E|--------------------|--7--6--4-----------|--------------------|---------------------------|--

Stave 3:

E|-----------------------------------------------------------------
B|-----------------------------------------------------------------
G|-----------------------------------------------------------------
D|-----------------------------------------------------------------
A|-----------------------------------------------------------------
E|-----------------------------------------------------------------

Stave 4:

E|--------------------|-----------4--4--|--------------------|-----------6--6--|--
B|--------------------|-----------4--4--|--------------------|-----------7--7--|--
G|--------4-----------|-----------5--5--|--------------------|-----------6--6--|--
D|--6--------6--------|-----------6--6--|--6-----6--------6--|--9--8--6--4--4--|--
A|-----8--------6--8--|-----------------|-----8-----6--8-----|-----------------|--
E|--------------------|--7--6--4--------|--------------------|-----------------|--

Stave 5:

E|--------------------|-----------4--4--|--------------------|-----------11--9---11--|--
B|--------------------|-----------4--4--|--------------------|-----------11--9---11--|--
G|--------4-----------|-----------5--5--|--------------------|-----------12--10--12--|--
D|--6--------6--------|-----------6--6--|--6-----6--------6--|--9--8--6--13--11--13--|--
A|-----8--------6--8--|-----------------|-----8-----6--8-----|-----------------------|--
E|--------------------|--7--6--4--------|--------------------|-----------------------|--

http://www.guitartabcreator.com
Guitar Tab Creator is intended to store guitar tab created through the tool. It currently does not support in-line text editing. Any text you place in here will be lost. If you need to comment on your tab, please use the "Tab Notes" section located below.