Sound will begin in 5 seconds

halloween rock

Chords
01234567891011121314151617181920212223
E
B
G
D
A
E
B
0 1 2 3 4 5 6 7 8 9 10 11 12 13 14 15 16 17 18 19 20 21 22 23
Song Science #1: How Pros Use 6 Chords to Write Hit Songs
(/) Slide Up  (\) Slide Down  (h) Hammer On  (p) Pull Off  (b) Bend (r) Release (v) Vibrato

Stave 1:

E|--10p7--9p7--10p7--9p7--12p9--10p9--12p9--10p9--14p10--12p10--15p12--14p12--17p14--15p14--19--
B|----------------------------------------------------------------------------------------------
G|----------------------------------------------------------------------------------------------
D|----------------------------------------------------------------------------------------------
A|----------------------------------------------------------------------------------------------
E|----------------------------------------------------------------------------------------------

Stave 2:

E|-------------------7------------------------------------------
B|----------------7-----8--7---------7--------------------------
G|-------7-----9--------------9---------9--7--9--7--6-----------
D|----9-----9------------------------------------------9--7--9--
A|--------------------------------------------------------------
E|--------------------------------------------------------------

Stave 3:

E|-----------------7------------------------------------------
B|--------------7-----8--7---------------7--------------------
G|-----7-----9--------------9------7--9-----------------------
D|--9-----9------------------------------------------7--8--9--
A|------------------------------------------9--9--9-----------
E|------------------------------------------------------------

Stave 4:

E|-----------------------------------------------------------------
B|--10--10--10----8--7--8--5--7--3---------------------------------
G|--9---9---9-------------------------9--9--9----------------------
D|------------------------------------9--9--9----7--6--7--4--6--3--
A|-----------------------------------------------------------------
E|-----------------------------------------------------------------

Stave 5:

E|-----------------7------------------------------------
B|--------------7-----8--7-------7-------------7----12--
G|-----7-----9--------------9-------9--7-------6----11--
D|--9-----9-------------------------------9-------------
A|------------------------------------------------------
E|------------------------------------------------------

http://www.guitartabcreator.com
Guitar Tab Creator is intended to store guitar tab created through the tool. It currently does not support in-line text editing. Any text you place in here will be lost. If you need to comment on your tab, please use the "Tab Notes" section located below.