Instrumental Lead Guitar

Chords

01234567891011121314151617181920212223
E
B
G
D
A
E
B
0 1 2 3 4 5 6 7 8 9 10 11 12 13 14 15 16 17 18 19 20 21 22 23
(/) Slide Up  (\) Slide Down  (h) Hammer On  (p) Pull Off  (b) Bend (r) Release (v) Vibrato

Verse - Lead Guitar (Picking)

Eb|--10--10---------------------------------------5--5--------
Bb|--8-------8-----10/12------10---------3--------3-----3-----
Gb|--0--------------------------------------0-----0--------0--
Db|-----------------------------------------------0-----------
Ab|--7----------7---------10------10--3--------3--------------
Eb|-----------------------------------------------3-----------

Chorus - Lead Guitar

Eb|--7-----------7--10-----10-----7-----7--8-----8--7-----7-----------7--10-----10-----7-----7--8-----8--7-----
Bb|--------8------------8------8-----8--------8--------8--------8------------8------8-----8--------8--------8--
Gb|------------------------------------------------------------------------------------------------------------
Db|------------------------------------------------------------------------------------------------------------
Ab|------------------------------------------------------------------------------------------------------------
Eb|------------------------------------------------------------------------------------------------------------

Chorus - Lead Guitar

Eb|--5h7p5-----7/8--8--8--5h7p5-----7/10--10--10--5h7p5-----7/8--8--8--8\7--7--7--7\5--5--5--
Bb|---------8--------------------8-----------------------8-----------------------------------
Gb|------------------------------------------------------------------------------------------
Db|------------------------------------------------------------------------------------------
Ab|------------------------------------------------------------------------------------------
Eb|------------------------------------------------------------------------------------------

Chorus - Lead Guitar

Eb|--5h7p5-----7/8--8--8--5h7p5-----7/10--10--10--5h7p5-----7/8--8--8--8\7--7--7--7\5--5--5--3-----
Bb|---------8--------------------8-----------------------8-----------------------------------------
Gb|------------------------------------------------------------------------------------------------
Db|------------------------------------------------------------------------------------------------
Ab|------------------------------------------------------------------------------------------------
Eb|------------------------------------------------------------------------------------------------

							http://www.guitartabcreator.com
Instruments
{"strings":[[[10,10,".",".",".",".",".",".",".",".",".",".",".",".",5,5,".","."],[8,".",8,".",10,"/",12,".",10,".",".",3,".",".",3,".",3,"."],[0,".",".",".",".",".",".",".",".",".",".",".",0,".",0,".",".",0],[".",".",".",".",".",".",".",".",".",".",".",".",".",".",0,".",".","."],[7,".",".",7,".",".",".",10,".",10,3,".",".",3,".",".",".","."],[".",".",".",".",".",".",".",".",".",".",".",".",".",".",3,".",".","."]],[[7,"_",".","_",7,10,".",10,".",7,".",7,8,".",8,7,".",7,"_",".","_",7,10,".",10,".",7,".",7,8,".",8,7,"."],[".","_",8,"_",".",".",8,".",8,".",8,".",".",8,".",".",8,".","_",8,"_",".",".",8,".",8,".",8,".",".",8,".",".",8],[".","_",".","_",".",".",".",".",".",".",".",".",".",".",".",".",".",".","_",".","_",".",".",".",".",".",".",".",".",".",".",".",".","."],[".","_",".","_",".",".",".",".",".",".",".",".",".",".",".",".",".",".","_",".","_",".",".",".",".",".",".",".",".",".",".",".",".","."],[".","_",".","_",".",".",".",".",".",".",".",".",".",".",".",".",".",".","_",".","_",".",".",".",".",".",".",".",".",".",".",".",".","."],[".","_",".","_",".",".",".",".",".",".",".",".",".",".",".",".",".",".","_",".","_",".",".",".",".",".",".",".",".",".",".",".",".","."]],[[5,"h",7,"p",5,".",7,"/",8,8,8,5,"h",7,"p",5,".",7,"/",10,10,10,5,"h",7,"p",5,".",7,"/",8,8,8,8,"\\",7,7,7,7,"\\",5,5,5],[".",".",".",".",".",8,".",".",".",".",".",".",".",".",".",".",8,".",".",".",".",".",".",".",".",".",".",8,".",".",".",".",".",".",".",".",".",".",".",".",".",".","."],[".",".",".",".",".",".",".",".",".",".",".",".",".",".",".",".",".",".",".",".",".",".",".",".",".",".",".",".",".",".",".",".",".",".",".",".",".",".",".",".",".",".","."],[".",".",".",".",".",".",".",".",".",".",".",".",".",".",".",".",".",".",".",".",".",".",".",".",".",".",".",".",".",".",".",".",".",".",".",".",".",".",".",".",".",".","."],[".",".",".",".",".",".",".",".",".",".",".",".",".",".",".",".",".",".",".",".",".",".",".",".",".",".",".",".",".",".",".",".",".",".",".",".",".",".",".",".",".",".","."],[".",".",".",".",".",".",".",".",".",".",".",".",".",".",".",".",".",".",".",".",".",".",".",".",".",".",".",".",".",".",".",".",".",".",".",".",".",".",".",".",".",".","."]],[[5,"h",7,"p",5,".",7,"/",8,8,8,5,"h",7,"p",5,".",7,"/",10,10,10,5,"h",7,"p",5,".",7,"/",8,8,8,8,"\\",7,7,7,7,"\\",5,5,5,3,"."],[".",".",".",".",".",8,".",".",".",".",".",".",".",".",".",".",8,".",".",".",".",".",".",".",".",".",".",8,".",".",".",".",".",".",".",".",".",".",".",".",".",".",".",".","."],[".",".",".",".",".",".",".",".",".",".",".",".",".",".",".",".",".",".",".",".",".",".",".",".",".",".",".",".",".",".",".",".",".",".",".",".",".",".",".",".",".",".",".",".","."],[".",".",".",".",".",".",".",".",".",".",".",".",".",".",".",".",".",".",".",".",".",".",".",".",".",".",".",".",".",".",".",".",".",".",".",".",".",".",".",".",".",".",".",".","."],[".",".",".",".",".",".",".",".",".",".",".",".",".",".",".",".",".",".",".",".",".",".",".",".",".",".",".",".",".",".",".",".",".",".",".",".",".",".",".",".",".",".",".",".","."],[".",".",".",".",".",".",".",".",".",".",".",".",".",".",".",".",".",".",".",".",".",".",".",".",".",".",".",".",".",".",".",".",".",".",".",".",".",".",".",".",".",".",".",".","."]]],"numberofstrings":6,"notes":["DsEb","AsBb","FsGb","CsDb","GsAb","DsEb"],"capo":0,"stringnotes":["Eb3","Bb2","Gb2","Db2","Ab1","Eb1"],"comments":["Verse - Lead Guitar (Picking)","Chorus - Lead Guitar","Chorus - Lead Guitar","Chorus - Lead Guitar"],"timing":[[null,null,null,null,null,null,null,null,null,null,"W","W","W","W","W","W","W","W"],["W","W","W",null,"W","W","W","W","W","W","W","W","W","W","W","W","W","W",null,"W",null,"W","W","W","W","W","W","W","W","W","W","W","W","W"],["W",null,"W",null,"W","W","W",null,"W","W","W","W",null,"W",null,"W","W","W",null,"W","W","W","W",null,"W",null,"W","W","W",null,"W","W","W","W",null,"W","W","W","W",null,"W","W","W","W",null,"W",null,"W","W","W"],[null,"W",null,"W",null,"W","W","W",null,"W","W","W","W",null,"W",null,"W","W","W",null,"W","W","W","W",null,"W",null,"W","W","W",null,"W","W","W","W","W","W","W","W","W",null,"W","W","W","W"]],"timingvisible":false,"tabcounter":45,"stave":3,"totalstaves":4,"instrument":"6guitar","selectedtuning":"Half Step Down","version":"13"}

Member for

1 hour 36 minutes
Submitted by nmatski on Sat, 2020-08-01 16:46