Sound will begin in 5 seconds

Rustboro City by Nino Lopez

01234567891011121314151617181920212223
E
B
G
D
A
E
B
0 1 2 3 4 5 6 7 8 9 10 11 12 13 14 15 16 17 18 19 20 21 22 23
Song Science #1: How Pros Use 6 Chords to Write Hit Songs
(/) Slide Up  (\) Slide Down  (h) Hammer On  (p) Pull Off  (b) Bend (r) Release (v) Vibrato

Stave 1:

E|----------------------------------------------------------------------------
B|----------------------------------------------------------------------------
G|---------------------12-10-10-8-7------6-7-8-7------------------------------
D|-7-8-10-8-7----7------------------8-10---------5-5-7-8-10-8-7-5-7---4-6-4-3-
A|------------10---8------------------------------------------------8---------
E|----------------------------------------------------------------------------

Stave 2:

E|---------------------------------------------------------------------------
B|---------------------------9-7-6-------------------------------------------
G|---10------10------10----------------12-10-10-8-7------6-7-8-7-5-----------
D|------8-10----8-10----8-10------------------------8-10-----------8-5-5-7-8-
A|-6-------------------------------8-8---------------------------------------
E|---------------------------------------------------------------------------

Stave 3:

E|---------------------------------------------------------------------------
B|---------------------------------------------------------------------------
G|------------------------10------10------10------10-11-----5-5---7-5-7-8-10-
D|-10-8-7-5-7---4-6-4-3------8-10----8-10----8-10-------5-7-----8------------
A|------------8---------6----------------------------------------------------
E|---------------------------------------------------------------------------

Stave 4:

E|------------------------------------------------------------------------------------3-----------------
B|--------------------------------------------------------------4-3-4-6-5-4-3-3-----3---6-4-3-4-6-5-4-3-
G|-10b10---------7-8b----8-------------5-------------7-12\3-3-5-----------------6-6---------------------
D|-------10-9-10-----8-8---8-8-7-5-7-5---8-7-8-7-5------------------------------------------------------
A|-------------------------------------------------8----------------------------------------------------
E|------------------------------------------------------------------------------------------------------

Stave 5:

E|----------------------------------------------------
B|-------4-4-3-4-6-6-5-4-3----------------------------
G|-3-3-5-------------------5-3------------------------
D|-----------------------------5-7-3-8-8-7h8p7----7---
A|---------------------------------------------10---8-
E|----------------------------------------------------

http://www.guitartabcreator.com
Guitar Tab Creator is intended to store guitar tab created through the tool. It currently does not support in-line text editing. Any text you place in here will be lost. If you need to comment on your tab, please use the "Tab Notes" section located below.