G/A Minor Triad Chord Shapes: Key F Major

01234567891011121314151617181920212223
E
B
G
D
A
E
B
0 1 2 3 4 5 6 7 8 9 10 11 12 13 14 15 16 17 18 19 20 21 22 23
(/) Slide Up  (\) Slide Down  (h) Hammer On  (p) Pull Off  (b) Bend (r) Release (v) Vibrato

Stave 1:

E|--0--3--5--6--8---10--12--15--17--18--20----------------------------------------------------------------------------------
B|--1--3--5--8--10--11--13--15--17--20--22--1--3--5--8--10--11--13--15--17--20--22------------------------------------------
G|--2--3--5--7--9---12--14--15--17--19--21--2--3--5--7--9---12--14--15--17--19--21--0--2--3--5--7---9---12--14--15--17--19--
D|------------------------------------------2--5--7--8--10--12--14--17--19--20--22--0--2--5--7--8---10--12--14--17--19--20--
A|----------------------------------------------------------------------------------1--3--5--7--10--12--13--15--17--19--22--
E|--------------------------------------------------------------------------------------------------------------------------

Stave 2:

E|------------------------------------------
B|------------------------------------------
G|------------------------------------------
D|--0--2--5--7--8---10--12--14--17--19--20--
A|--1--3--5--7--10--12--13--15--17--19--22--
E|--3--5--6--8--10--12--15--17--18--20--22--

							http://www.guitartabcreator.com
Chords

Instruments
{"strings":[[[0,3,5,6,8,10,12,15,17,18,20,".",".",".",".",".",".",".",".",".",".",".",".",".",".",".",".",".",".",".",".",".","."],[1,3,5,8,10,11,13,15,17,20,22,1,3,5,8,10,11,13,15,17,20,22,".",".",".",".",".",".",".",".",".",".","."],[2,3,5,7,9,12,14,15,17,19,21,2,3,5,7,9,12,14,15,17,19,21,0,2,3,5,7,9,12,14,15,17,19],[".",".",".",".",".",".",".",".",".",".",".",2,5,7,8,10,12,14,17,19,20,22,0,2,5,7,8,10,12,14,17,19,20],[".",".",".",".",".",".",".",".",".",".",".",".",".",".",".",".",".",".",".",".",".",".",1,3,5,7,10,12,13,15,17,19,22],[".",".",".",".",".",".",".",".",".",".",".",".",".",".",".",".",".",".",".",".",".",".",".",".",".",".",".",".",".",".",".",".","."]],[[".",".",".",".",".",".",".",".",".",".","."],[".",".",".",".",".",".",".",".",".",".","."],[".",".",".",".",".",".",".",".",".",".","."],[0,2,5,7,8,10,12,14,17,19,20],[1,3,5,7,10,12,13,15,17,19,22],[3,5,6,8,10,12,15,17,18,20,22]]],"numberofstrings":6,"notes":["E","B","G","D","A","E","B"],"capo":0,"stringnotes":["E4","B3","G3","D3","A2","E2"],"comments":["Stave 1:","Stave 2:"],"timing":[[null,null,null,null,null,null,null,null,null,null,null,null,null,null,null,null,null,null,null,null,null,null,null,null,null,null,null,null,null,null,null,null,null],[null,null,null,null,null,null,null,null,null,null,null]],"timingvisible":false,"tabcounter":10,"stave":1,"totalstaves":2,"instrument":"6guitar","selectedtuning":"6_standard","version":"13"}

Member for

3 months 2 weeks
Submitted by njaym33 on Wed, 2020-12-09 18:54