spärdäri

01234567891011121314151617181920212223
E
B
G
D
A
E
B
0 1 2 3 4 5 6 7 8 9 10 11 12 13 14 15 16 17 18 19 20 21 22 23
(/) Slide Up  (\) Slide Down  (h) Hammer On  (p) Pull Off  (b) Bend (r) Release (v) Vibrato

Stave 1:

E|-----------------------------------
B|--------------------0--------------
G|--------0-----------4-----------0--
D|--------5--------2-----2--------2--
A|-----2-----2--0--------------2-----
E|--3-----------------------0--------

Stave 2:

E|-----------------------------------------------------------------------------------
B|--------------------0-----------------------0-----------------------0--------------
G|--------0-----------4-----------0-----------4-----------0-----------4-----------0--
D|--------5--------2-----2--------5--------2-----2--------5--------2-----2--------2--
A|-----2-----2--0--------------2-----2--2--------------2-----2--0--------------2-----
E|--3-----------------------2-----------------------3-----------------------0--------

							http://www.guitartabcreator.com
Chords

Instruments
{"strings":[[[".",".",".",".",".",".",".",".",".",".","."],[".",".",".",".",".",".",0,".",".",".","."],[".",".",0,".",".",".",4,".",".",".",0],[".",".",5,".",".",2,".",2,".",".",2],[".",2,".",2,0,".",".",".",".",2,"."],[3,".",".",".",".",".",".",".",0,".","."]],[[".",".",".",".",".",".",".",".",".",".",".",".",".",".",".",".",".",".",".",".",".",".",".",".",".",".","."],[".",".",".",".",".",".",0,".",".",".",".",".",".",".",0,".",".",".",".",".",".",".",0,".",".",".","."],[".",".",0,".",".",".",4,".",".",".",0,".",".",".",4,".",".",".",0,".",".",".",4,".",".",".",0],[".",".",5,".",".",2,".",2,".",".",5,".",".",2,".",2,".",".",5,".",".",2,".",2,".",".",2],[".",2,".",2,0,".",".",".",".",2,".",2,2,".",".",".",".",2,".",2,0,".",".",".",".",2,"."],[3,".",".",".",".",".",".",".",2,".",".",".",".",".",".",".",3,".",".",".",".",".",".",".",0,".","."]]],"numberofstrings":6,"notes":["E","B","G","D","A","E","B"],"capo":0,"stringnotes":["E4","B3","G3","D3","A2","E2"],"comments":["Stave 1:","Stave 2:"],"timing":[["W","W","W","W","W","W","W","W","W","W","W"],["W","W","W","W","W","W","W","W","W","W","W","W","W","W","W","W","W","W","W","W","W","W","W","W","W","W","W"]],"timingvisible":false,"tabcounter":26,"stave":1,"totalstaves":2,"instrument":"6guitar","selectedtuning":"6_standard","version":"13"}

Member for

1 month 4 weeks
Submitted by nisti on Wed, 2020-11-25 22:49