jaajo linnonmaa

01234567891011121314151617181920212223
E
B
G
D
A
E
B
0 1 2 3 4 5 6 7 8 9 10 11 12 13 14 15 16 17 18 19 20 21 22 23
(/) Slide Up  (\) Slide Down  (h) Hammer On  (p) Pull Off  (b) Bend (r) Release (v) Vibrato

Stave 1:

E|--------------0-----------------------0-----------------------0-----------------------0-----------------------0-----------------------0-----------
B|-----------1-----1-----------------1-----1-----------------3-----3-----------------3-----3-----------------5-----5-----------------5-----5--------
G|--------4-----------4-----------4-----------4-----------2-----------2-----------2-----------2-----------0-----------0-----------0-----------0-----
D|-----2-----------------2-----2-----------------2-----3-----------------3-----3-----------------3-----5-----------------5-----5-----------------5--
A|--0-----------------------0-----------------------1-----------------------1-----------------------3-----------------------4-----------------------
E|--------------------------------------------------------------------------------------------------------------------------------------------------

Stave 2:

E|--0--
B|--0--
G|--0--
D|--5--
A|--2--
E|--0--

Stave 3:

E|-------------------------------------------------------------------------------------------------------------------------------------------------
B|-----------------------------------------------0-----------0--------0----------------------------------------------0-----------0--------------6--
G|-----------0-----------0-----------0--------5-----------5-----------5/4-----------0-----------0-----------0--------5-----------5-----------7-----
D|--------5-----------5-----------5--------2-----------2-----------2-------------5-----------5-----------5--------2-----2-----2-----2-----5--------
A|-----2-----------2-----------2--------0-----------2-----------3-------------2-----------2-----------2--------0-----------3-----------5-----------
E|--0-----------2-----------3----------------------------------------------0-----------2-----------3-----------------------------------------------

							http://www.guitartabcreator.com
Chords

Instruments
{"strings":[[[".",".",".",".",0,".",".",".",".",".",".",".",0,".",".",".",".",".",".",".",0,".",".",".",".",".",".",".",0,".",".",".",".",".",".",".",0,".",".",".",".",".",".",".",0,".",".","."],[".",".",".",1,".",1,".",".",".",".",".",1,".",1,".",".",".",".",".",3,".",3,".",".",".",".",".",3,".",3,".",".",".",".",".",5,".",5,".",".",".",".",".",5,".",5,".","."],[".",".",4,".",".",".",4,".",".",".",4,".",".",".",4,".",".",".",2,".",".",".",2,".",".",".",2,".",".",".",2,".",".",".",0,".",".",".",0,".",".",".",0,".",".",".",0,"."],[".",2,".",".",".",".",".",2,".",2,".",".",".",".",".",2,".",3,".",".",".",".",".",3,".",3,".",".",".",".",".",3,".",5,".",".",".",".",".",5,".",5,".",".",".",".",".",5],[0,".",".",".",".",".",".",".",0,".",".",".",".",".",".",".",1,".",".",".",".",".",".",".",1,".",".",".",".",".",".",".",3,".",".",".",".",".",".",".",4,".",".",".",".",".",".","."],[".",".",".",".",".",".",".",".",".",".",".",".",".",".",".",".",".",".",".",".",".",".",".",".",".",".",".",".",".",".",".",".",".",".",".",".",".",".",".",".",".",".",".",".",".",".",".","."]],[[0],[0],[0],[5],[2],[0]],[[".",".",".",".",".",".",".",".",".",".",".",".",".",".",".",".",".",".",".",".",".",".",".",".",".",".",".",".",".",".",".",".",".",".",".",".",".",".",".",".",".",".",".",".",".",".",".",".","."],[".",".",".",".",".",".",".",".",".",".",".",".",".",".",".",0,".",".",".",0,".",".",0,".",".",".",".",".",".",".",".",".",".",".",".",".",".",".",".",0,".",".",".",0,".",".",".",".",6],[".",".",".",0,".",".",".",0,".",".",".",0,".",".",5,".",".",".",5,".",".",".",5,"/",4,".",".",".",0,".",".",".",0,".",".",".",0,".",".",5,".",".",".",5,".",".",".",7,"."],[".",".",5,".",".",".",5,".",".",".",5,".",".",2,".",".",".",2,".",".",".",2,".",".",".",".",".",5,".",".",".",5,".",".",".",5,".",".",2,".",2,".",2,".",2,".",5,".","."],[".",2,".",".",".",2,".",".",".",2,".",".",0,".",".",".",2,".",".",".",3,".",".",".",".",".",2,".",".",".",2,".",".",".",2,".",".",0,".",".",".",3,".",".",".",5,".",".","."],[0,".",".",".",2,".",".",".",3,".",".",".",".",".",".",".",".",".",".",".",".",".",".",".",".",0,".",".",".",2,".",".",".",3,".",".",".",".",".",".",".",".",".",".",".",".",".",".","."]]],"numberofstrings":6,"notes":["E","B","G","D","A","E","B"],"capo":0,"stringnotes":["E4","B3","G3","D3","A2","E2"],"comments":["Stave 1:","Stave 2:","Stave 3:"],"timing":[[null,null,null,null,null,null,null,null,null,null,"W","W","W","W","W","W","W","W","W","W","W","W","W","W","W","W","W","W","W","W","W","W","W","W","W","W","W","W","W","W","W","W","W","W","W","W","W","W"],["W"],["W","W","W","W","W","W","W","W","W","W","W","W","W","W","W","W","W","W","W","W","W","W","W","W","W","W","W","W","W","W","W","W","W","W","W","W","W","W","W","W","W","W","W","W","W","W","W","W","W"]],"timingvisible":false,"tabcounter":49,"stave":2,"totalstaves":3,"instrument":"6guitar","selectedtuning":"6_standard","version":"13"}

Member for

1 month 4 weeks
Submitted by nisti on Wed, 2020-11-25 21:04