Sound will begin in 5 seconds

Sonata in G

Chords
01234567891011121314151617181920212223
E
B
G
D
A
E
B
0 1 2 3 4 5 6 7 8 9 10 11 12 13 14 15 16 17 18 19 20 21 22 23
Song Science #1: How Pros Use 6 Chords to Write Hit Songs
(/) Slide Up  (\) Slide Down  (h) Hammer On  (p) Pull Off  (b) Bend (r) Release (v) Vibrato

Capo Fret 7

Stave 1:

E|--------------------------------------------------------------------------------------
B|--12------12------12------10-----10-----10--8-----8-----8-----8-----8--8h10--8--7--5--
G|--------------------------------------------------------------------------------------
D|--------------------------------------------------------------------------------------
A|--10--10------10------10--9---9------9------7--7-----7-----0--7--7-----7-----------3--
E|--------------------------------------------------------------------------------------

Stave 2:

E|------------------------------------------------------------------------------------7------------
B|--12------12------12------10-----10-----10h12--10--8-----8-----8-----8-----8--8h10-----10--8--5--
G|-------------------------------------------------------------------------------------------------
D|-------------------------------------------------------------------------------------------------
A|--10--10------10------10--9---9------9--9----------7--7-----7-----0--7--7---------------------3--
E|-------------------------------------------------------------------------------------------------

Stave 3:

E|--------------------
B|--5-----5-----5-----
G|--------------------
D|--------------------
A|--3--3-----3-----3--
E|--------------------

Stave 4:

E|--3--3\
B|-------
G|-------
D|-------
A|--2--2-
E|-------

Stave 5:

E|--0--0--0--0-----1--------1--1--1--1-----
B|--1--1--1--1--3-----3--1--1--1--1--1--0--
G|--0--0--2--2--------------2--2--2--2--0--
D|--2--0--2--2--------------3--3--3--3--0--
A|--3--2--0--0--------------3--3--3--3--0--
E|--------------------------1--1--1--1-----

Stave 6:

E|----------------------------------------------------------------------------------------------------
B|--8-----8-----8-----10-----10-----10-----12------12------12------12------12--13------12------10--8--
G|----------------------------------------------------------------------------------------------------
D|----------------------------------------------------------------------------------------------------
A|--7--7-----7-----7--9---9------9------9--10--10------10------10--10--10------10--10--10--10--10--7--
E|----------------------------------------------------------------------------------------------------

Stave 7:

E|-----------------------------------------
B|--8-----8-----8-----7-----7-----7-----5--
G|-----------------------------------------
D|-----------------------------------------
A|--7--7-----7-----7--5--5-----5-----5--3--
E|-----------------------------------------

Stave 8:

E|--0--3--0--0--
B|--1--3--1--1--
G|--2--0--0--0--
D|--2--0--2--2--
A|--0--2--3--3--
E|-----3--------

Stave 9:

E|--0--0--0--
B|--1--0--1--
G|--2--0--2--
D|--2--2--3--
A|--0--2--3--
E|-----0--0--

Stave 10:

E|--------------------------------------------------------------------------
B|--3-----3-----3-----2-----2-----2--3--2--0--0-----0-----0-----2--3--2--0--
G|--------------------------------------------------------------------------
D|--------------------------------------------------------------------------
A|--2--2-----2-----2--0--0-----0--------------------------------------------
E|--------------------------------------------3--3-----3-----3--3--3--3--3--

Stave 11:

E|--0--3--0--0--
B|--0--3--1--1--
G|--0--2--0--0--
D|--1--0--2--2--
A|--1--0--3--3--
E|--0--2--------

http://www.guitartabcreator.com
Guitar Tab Creator is intended to store guitar tab created through the tool. It currently does not support in-line text editing. Any text you place in here will be lost. If you need to comment on your tab, please use the "Tab Notes" section located below.