Sound will begin in 5 seconds

Morning of the Carnival

Chords
01234567891011121314151617181920212223
E
B
G
D
A
E
B
0 1 2 3 4 5 6 7 8 9 10 11 12 13 14 15 16 17 18 19 20 21 22 23
Song Science #1: How Pros Use 6 Chords to Write Hit Songs
(/) Slide Up  (\) Slide Down  (h) Hammer On  (p) Pull Off  (b) Bend (r) Release (v) Vibrato

Stave 1:

E|--0--8--|--7--5--5--|--4--7--0--|--------0--|--0--8--|--7--5--5--|--3--5/7--0--|--3--|--
B|-----5--|--------5--|--------1--|-----3--3--|-----5--|--------6--|--3-------0--|--2--|--
G|-----5--|--------7--|--4--7--2--|-----2--1--|-----5--|--------7--|--4-------0--|--3--|--
D|--------|-----------|-----------|-----3-----|--------|--------0--|-------------|--2--|--
A|-----0--|-----------|--------0--|--2--------|-----0--|-----------|----------3--|-----|--
E|--------|--------7--|--0--------|--------0--|--------|-----------|--3----------|-----|--

Stave 2:

E|--0--1--3--|--5-----|--------|-----------|--3-----|--------|--------0--|--1-----|-----0--|--
B|-----------|-----6--|-----3--|--3--5--6--|-----1--|-----1--|--1--3-----|-----3--|-----3--|--
G|-----------|-----7--|-----4--|-----------|-----0--|-----2--|-----------|-----2--|-----1--|--
D|-----------|--0-----|-----5--|-----------|--------|-----2--|-----------|--------|--------|--
A|--0--------|--------|--------|-----------|--3-----|--------|-----------|--2-----|--------|--
E|-----------|--------|--3-----|-----------|--------|--1-----|-----------|--------|--0-----|--

Stave 3:

E|-----------0--|--------0--|--0--8--|--7--4--5--|--4--7--0--|--------0--|--0--6--|--5--3--3--|--
B|--0--1--3--1--|-----3--3--|-----5--|--------5--|--------1--|-----3--3--|-----5--|--------2--|--
G|-----------2--|-----2--1--|-----5--|--------7--|--4--7--2--|-----2--1--|-----7--|--------2--|--
D|--------------|-----3-----|--------|-----------|-----------|-----3-----|-----5--|-----------|--
A|-----------0--|--2--------|-----0--|-----------|--------0--|--2--------|--------|--------0--|--
E|--------------|--------0--|--------|--------7--|--0--------|--------0--|--------|-----------|--

Stave 4:

E|--1--0--5--------|--------|-----0--1--7--|--------|--------0--5--|--5--4--0--|-----------0--|--
B|-----------6--6--|-----3--|--3--------6--|-----1--|--1--3-----5--|-----------|-----3-----3--|--
G|-----------7--7--|-----2--|-----------7--|-----2--|-----------5--|-----------|-----2-----1--|--
D|--------0--------|-----3--|--------------|--------|-----------3--|-----------|-----3--------|--
A|-----------------|--2-----|--------------|--0-----|--------------|--------2--|--2-----------|--
E|-----------------|--------|-----------7--|--------|--------------|-----------|--------0-----|--

Stave 5:

E|--
B|--
G|--
D|--
A|--
E|--

http://www.guitartabcreator.com
Guitar Tab Creator is intended to store guitar tab created through the tool. It currently does not support in-line text editing. Any text you place in here will be lost. If you need to comment on your tab, please use the "Tab Notes" section located below.