Sound will begin in 5 seconds

Nightmare Solo

01234567891011121314151617181920212223
E
B
G
D
A
E
B
0 1 2 3 4 5 6 7 8 9 10 11 12 13 14 15 16 17 18 19 20 21 22 23
Song Science #1: How Pros Use 6 Chords to Write Hit Songs
(/) Slide Up  (\) Slide Down  (h) Hammer On  (p) Pull Off  (b) Bend (r) Release (v) Vibrato

Stave 1:

E|--17--17--16--16--15--15--13--13------------------------9p
B|----------------------------------15---------8--10--11----
G|------------------------------------------9---------------
D|--------------------------------------11------------------
A|----------------------------------------------------------
E|----------------------------------------------------------

Stave 2:

E|--17--17--16--16--15--15--13-------------------------------------------------------------------------
B|------------------------------15------15-------------8--9--10--11--11--10--9--8--15--13--12--13--17--
G|----------------------------------14----------9--10--------------------------------------------------
D|------------------------------------------12---------------------------------------------------------
A|-----------------------------------------------------------------------------------------------------
E|-----------------------------------------------------------------------------------------------------

Stave 3:

E|-------------------------------------------------------------
B|-------------8--9--10--11------11--8-----9-------------9--8--
G|------9--10---------------------------9-----10--10--9--------
D|--12-----------------------12--------------------------------
A|-------------------------------------------------------------
E|-------------------------------------------------------------

Stave 4:

E|--17------------------------------14--15--16--------------------------13--14--15--
B|----------------------14--15--16--------------------------13--14--15--------------
G|----------14--15--16--------------------------13--14--15--------------------------
D|------15--------------------------------------------------------------------------
A|----------------------------------------------------------------------------------
E|----------------------------------------------------------------------------------

Stave 5:

E|--17------------------------------------------------------------------------------15--13--17--13--15--14--15--
B|----------------------------------14--15--16--------------------------13--14--15------------------------------
G|----------------------14--15--16--------------------------13--14--15------------------------------------------
D|------15--14--15--16--------------------------13--14--15------------------------------------------------------
A|--------------------------------------------------------------------------------------------------------------
E|--------------------------------------------------------------------------------------------------------------

Stave 6:

E|--17------------------------------------------------------------------------------15--
B|----------------------------------14--15--16--------------------------13--14--15------
G|----------------------14--15--16--------------------------13--14--15------------------
D|------15--14--15--16--------------------------13--14--15------------------------------
A|--------------------------------------------------------------------------------------
E|--------------------------------------------------------------------------------------

Stave 7:

E|--13--17------------------17--13------------------------------------------13--17--18--17--15--14--15--17------13--12--13--15--
B|----------15--14------------------15----------------------------------15----------------------------------15------------------
G|------------------15--14--------------14------------------14--15--14----------------------------------------------------------
D|------------------------------------------15----------15----------------------------------------------------------------------
A|----------------------------------------------17--17--------------------------------------------------------------------------
E|------------------------------------------------------------------------------------------------------------------------------

Stave 8:

E|--------------------------------------------
B|--15--18--13--20--12--18--10--13--10--9--6--
G|--------------------------------------------
D|--------------------------------------------
A|--------------------------------------------
E|--------------------------------------------

Stave 9:

E|----------
B|----------
G|----------
D|--12--15--
A|----------
E|----------

Stave 10:

E|--------------------------------------------5--8--17--13------------------------------------------12--13----------
B|-----------------------------------------6----------------17--16--15--14--14--15--14--15------15----------14--15--
G|--------------------------5--7--5--7--7---------------------------------------------------14----------------------
D|--------------6--7--6--7------------------------------------------------------------------------------------------
A|--5--8--5--8------------------------------------------------------------------------------------------------------
E|------------------------------------------------------------------------------------------------------------------

http://www.guitartabcreator.com
Guitar Tab Creator is intended to store guitar tab created through the tool. It currently does not support in-line text editing. Any text you place in here will be lost. If you need to comment on your tab, please use the "Tab Notes" section located below.