Scales and Chords (I-IV-V) Key of C

Chords

01234567891011121314151617181920212223
E
B
G
D
A
E
B
0 1 2 3 4 5 6 7 8 9 10 11 12 13 14 15 16 17 18 19 20 21 22 23
(/) Slide Up  (\) Slide Down  (h) Hammer On  (p) Pull Off  (b) Bend (r) Release (v) Vibrato

Stave 1:

E|--------------------------------0--------------------------------------0--------
B|--------------------0--1--------1--------1--0--------------------------1--------
G|--------------0--2--------------0--------------2--0--------------------0--------
D|-----0--2--3--------------------2--------------------3--2--0-----------2--------
A|--3-----------------------------3-----------------------------3--------3--------
E|--------------------------------------------------------------------------------

Stave 2:

E|--------------------0--1--------0--------1--0--------------------------0--------
B|-----------0--1--3--------------1--------------3--1--0-----------------1--------
G|-----0--2-----------------------2-----------------------2--0-----------2--------
D|--3-----------------------------3-----------------------------3--------3--------
A|--------------------------------------------------------------------------------
E|--------------------------------------------------------------------------------

Stave 3:

E|--------------------------------3--------------------------------------3--------
B|--------------------------------0--------------------------------------0--------
G|-----------------------0--------0--------0-----------------------------0--------
D|--------------0--2--3-----------0-----------3--2--0--------------------0--------
A|-----0--2--3--------------------2--------------------3--2--0-----------2--------
E|--3-----------------------------3-----------------------------3--------3--------

							http://www.guitartabcreator.com
Instruments
{"strings":[[[".",".",".",".",".",".",".",".","_","_",0,"_","_",".",".",".",".",".",".",".",".","_","_",0,"_","_"],[".",".",".",".",".",".",0,1,"_","_",1,"_","_",1,0,".",".",".",".",".",".","_","_",1,"_","_"],[".",".",".",".",0,2,".",".","_","_",0,"_","_",".",".",2,0,".",".",".",".","_","_",0,"_","_"],[".",0,2,3,".",".",".",".","_","_",2,"_","_",".",".",".",".",3,2,0,".","_","_",2,"_","_"],[3,".",".",".",".",".",".",".","_","_",3,"_","_",".",".",".",".",".",".",".",3,"_","_",3,"_","_"],[".",".",".",".",".",".",".",".","_","_",".","_","_",".",".",".",".",".",".",".",".","_","_",".","_","_"]],[[".",".",".",".",".",".",0,1,"_","_",0,"_","_",1,0,".",".",".",".",".",".","_","_",0,"_","_"],[".",".",".",0,1,3,".",".","_","_",1,"_","_",".",".",3,1,0,".",".",".","_","_",1,"_","_"],[".",0,2,".",".",".",".",".","_","_",2,"_","_",".",".",".",".",".",2,0,".","_","_",2,"_","_"],[3,".",".",".",".",".",".",".","_","_",3,"_","_",".",".",".",".",".",".",".",3,"_","_",3,"_","_"],[".",".",".",".",".",".",".",".","_","_",".","_","_",".",".",".",".",".",".",".",".","_","_",".","_","_"],[".",".",".",".",".",".",".",".","_","_",".","_","_",".",".",".",".",".",".",".",".","_","_",".","_","_"]],[[".",".",".",".",".",".",".",".","_","_",3,"_","_",".",".",".",".",".",".",".",".","_","_",3,"_","_"],[".",".",".",".",".",".",".",".","_","_",0,"_","_",".",".",".",".",".",".",".",".","_","_",0,"_","_"],[".",".",".",".",".",".",".",0,"_","_",0,"_","_",0,".",".",".",".",".",".",".","_","_",0,"_","_"],[".",".",".",".",0,2,3,".","_","_",0,"_","_",".",3,2,0,".",".",".",".","_","_",0,"_","_"],[".",0,2,3,".",".",".",".","_","_",2,"_","_",".",".",".",".",3,2,0,".","_","_",2,"_","_"],[3,".",".",".",".",".",".",".","_","_",3,"_","_",".",".",".",".",".",".",".",3,"_","_",3,"_","_"]]],"numberofstrings":6,"notes":["E","B","G","D","A","E","B"],"capo":0,"stringnotes":["E4","B3","G3","D3","A2","E2"],"comments":["Stave 1:","Stave 2:","Stave 3:"],"timing":[["W","W","W","W","W","W","W","W",null,null,"W","W","W","W","W","W","W","W","W","W","W",null,null,"W"],["W","W","W","W","W","W","W","W",null,null,"W",null,null,"W","W","W","W","W","W","W","W",null,null,"W"],["W","W","W","W","W","W","W","W",null,null,"W",null,null,"W","W","W","W","W","W","W","W",null,null,"W"]],"timingvisible":false,"tabcounter":26,"stave":2,"totalstaves":3,"instrument":"6guitar","selectedtuning":"6_standard","version":"13"}

Member for

5 years 2 months
Submitted by nicksu_bass on Thu, 2020-11-19 00:07