Sound will begin in 5 seconds

Maduie's Attic(us)

01234567891011121314151617181920212223
E
B
G
D
A
E
B
0 1 2 3 4 5 6 7 8 9 10 11 12 13 14 15 16 17 18 19 20 21 22 23
Song Science #1: How Pros Use 6 Chords to Write Hit Songs
(/) Slide Up  (\) Slide Down  (h) Hammer On  (p) Pull Off  (b) Bend (r) Release (v) Vibrato

Stave 1:

E|-----------------------------------------------------------------------------------------
B|--------------------------------------------------------3--------------------------------
G|-----------------------------------------------2--3--3-----5--5--5--6--------------------
D|--------------------------5--7--5--7--7--8--7--------------------------6-----------------
A|-----------------------------------------------------------------------------------------
E|--2--2--2--4--4--4--5--5--------------------------------------------------5--5--4--3--5--

Stave 2:

E|----------------------------------------------------------------------------------------------------------
B|----------------------------------------------------------------------------------------------------------
G|----------------------------------6--8-----8--3--5--5--3--------------------------------------12--11--13--
D|--3--3--4-----------------6--8--6--------6-----------------11--12--12--12--13------------------------------
A|--3--3--4--------------7-------------------------------------------------------13--12--11--12--------------
E|-------7--5--7--5--7--------------------------------------------------------------------------------------

http://www.guitartabcreator.com
Guitar Tab Creator is intended to store guitar tab created through the tool. It currently does not support in-line text editing. Any text you place in here will be lost. If you need to comment on your tab, please use the "Tab Notes" section located below.