Sound will begin in 5 seconds

YG - Why You Always Hatin? ft. Drake, Kamaiyah

Chords
01234567891011121314151617181920212223
E
B
G
D
A
E
B
0 1 2 3 4 5 6 7 8 9 10 11 12 13 14 15 16 17 18 19 20 21 22 23
Song Science #1: How Pros Use 6 Chords to Write Hit Songs
(/) Slide Up  (\) Slide Down  (h) Hammer On  (p) Pull Off  (b) Bend (r) Release (v) Vibrato

Stave 1:

E|-----------------------------------------------
B|-----------------------------------------------
G|-----------------------------------------------
D|-----------------------------------------------
A|--3-----3--5--6--------------3--5--6--6--6--5--
E|-----------------------------------------------

Stave 2:

E|--------------------------------------------
B|--------------------------------------------
G|--5-----5--7--8-----------5--7--8--8--8--7--
D|--------------------------------------------
A|--------------------------------------------
E|--------------------------------------------

Stave 3:

E|------------------
B|--13/16\13/16\13--
G|------------------
D|------------------
A|------------------
E|------------------

Stave 4:

E|----------------------------------
B|--13------------------------------
G|---------12--------13--------8\7--
D|----------------------------------
A|----------------------------------
E|----------------------------------

Stave 5:

E|-----------------------------------------
B|-----------------------------------------
G|-----------------------------------------
D|--5-----5--7--8--------5--7--7--7--8--7--
A|--3-----3--5--6--------3--5--6--6--6--5--
E|-----------------------------------------

Stave 6:

E|--15--11--10--8--15--11--10--8--15--11--10--8--15--11--10--8--15--11--10--8--15--11--10--8--
B|--------------------------------------------------------------------------------------------
G|--------------------------------------------------------------------------------------------
D|--------------------------------------------------------------------------------------------
A|--------------------------------------------------------------------------------------------
E|--------------------------------------------------------------------------------------------

Stave 7:

E|--11/13\11/13--11-----------11-----10-----11-----10-----8------------11---------13--
B|-------------------13\11\8------8------8------8------8-----8--11/13------13/16------
G|------------------------------------------------------------------------------------
D|------------------------------------------------------------------------------------
A|------------------------------------------------------------------------------------
E|------------------------------------------------------------------------------------

Stave 8:

E|---------15--18--20--18--20--22--20--18--15--18\15-------------------------------------
B|--16/18---------------------------------------------16\15---------16\15----------------
G|-----------------------------------------------------------17\15---------17\15---------
D|--------------------------------------------------------------------------------17\15--
A|---------------------------------------------------------------------------------------
E|---------------------------------------------------------------------------------------

Stave 9:

E|----------------------
B|----------------------
G|----------------------
D|--13/15\13------------
A|------------15\13/15--
E|----------------------

http://www.guitartabcreator.com
Guitar Tab Creator is intended to store guitar tab created through the tool. It currently does not support in-line text editing. Any text you place in here will be lost. If you need to comment on your tab, please use the "Tab Notes" section located below.