Sound will begin in 5 seconds

Yellowcard- The Hurt Is Gone

Chords
01234567891011121314151617181920212223
E
B
G
D
A
E
B
0 1 2 3 4 5 6 7 8 9 10 11 12 13 14 15 16 17 18 19 20 21 22 23
Song Science #1: How Pros Use 6 Chords to Write Hit Songs
(/) Slide Up  (\) Slide Down  (h) Hammer On  (p) Pull Off  (b) Bend (r) Release (v) Vibrato

Stave 1:

E|----------------------------------------
B|----------------------------------------
G|--11--11--11--11--11/12--12-----4/7--7--
D|----------------------------------------
A|--9---9---9---9---9--10--10-----2-5--5--
E|----------------------------------------

Stave 2:

E|----------------------------------------
B|----------------------------------------
G|--11--11--11--11--11/12--12----------11b
D|-----------------------------7/9--------
A|--9---9---9---9---9--10--10-------------
E|----------------------------------------

Stave 3:

E|--------------------------------------------------------------------------
B|--------------------------------------------------------------------------
G|--------------------------------------------------------------------------
D|--5--5--5--5--5--5--5--5--5--5--5--5--5--5--5--5--5--5--5--5--5--5--5--5--
A|--5--5--5--5--5--5--5--5--5--5--5--5--5--5--5--5--5--5--5--5--5--5--5--5--
E|--5--5--5--5--5--5--5--5--5--5--5--5--5--5--5--5--5--5--5--5--5--5--5--5--

Stave 4:

E|----------------------------------------------------------------------------------
B|----------------------------------------------------------------------------------
G|--------------------------11--11--11--11--11--11--11--11--11--11--11--11--11--11--
D|--5--5--5--5--5--5--------9---9---9---9---9---9---9---9---9---9---9---9---9---9---
A|--5--5--5--5--5--5--------9---9---9---9---9---9---9---9---9---9---9---9---9---9---
E|--5--5--5--5--5--5--0--0--0---0---0---0---0---0---0---0---0---0---0---0---0---0---

Stave 5:

E|--------------------------------------------------------------------------
B|--------------------------------------------------------------------------
G|--11--11--11--11--11--11--11--11--11--11--11--11--11--11--11--11--11--11--
D|--9---9---9---9---9---9---9---9---9---9---9---9---9---9---9---9---9---9---
A|--9---9---9---9---9---9---9---9---9---9---9---9---9---9---9---9---9---9---
E|--0---0---0---0---0---0---0---0---0---0---0---0---0---0---0---0---0---0---

Stave 6:

E|--------------------------------------
B|--------------------------------------
G|--11/12\11--11--9--9------------------
D|--------------------------------------
A|--9--10-9---9---7--7--9/10\9\7--7--5--
E|--------------------------------------

Stave 7:

E|-------------------------------------------------------------------------------------------------------------------------------
B|--------------------------------------------------------12--12--12--12--12--12--12--12-----------------------------------------
G|-------------------------------------------------------------------------------------------------------------------------------
D|--------------------------------------------------------9---9---9---9---9---9---9---9------12--12--12--12--12--12--------------
A|--7--7--7--7--7--7--7--7--------7--7--7--7--7--7--7--7-------------------------------------10--10--10--10--10--10--------------
E|--9--9--9--9--9--9--9--9--------9--9--9--9--9--9--9--9-------------------------------------------------------------------------

Stave 8:

E|--------------------------------------------------------------------------------
B|----------------------------------------------------------------------------12--
G|--9--9--7--7--12--9--9--7--7--------9--9--7--7--12-----11/12--12--12--7--9------
D|------------------------------5---------------------------------------------9---
A|--7--7--5--5--10--7--7--5--5--------7--7--5--5--10-----9--10--10--10--5--7------
E|------------------------------5-------------------------------------------------

Stave 9:

E|----------------------
B|------------------12--
G|---------------9------
D|------------------9---
A|--9/10\9\7--5--7------
E|--0-------------------

http://www.guitartabcreator.com
Guitar Tab Creator is intended to store guitar tab created through the tool. It currently does not support in-line text editing. Any text you place in here will be lost. If you need to comment on your tab, please use the "Tab Notes" section located below.