Sound will begin in 5 seconds

Jamie T- Power Over Men

Chords
01234567891011121314151617181920212223
E
B
G
D
A
E
B
0 1 2 3 4 5 6 7 8 9 10 11 12 13 14 15 16 17 18 19 20 21 22 23
Song Science #1: How Pros Use 6 Chords to Write Hit Songs
(/) Slide Up  (\) Slide Down  (h) Hammer On  (p) Pull Off  (b) Bend (r) Release (v) Vibrato

Stave 1:

E|-----------------------------------------------------------------------
B|------7------------7----7---------5---------5----5---------3-----------
G|------7------------7----7---------6---------6----6---------4-----------
D|------9------------9----9---------7---------7----7---------5-----------
A|------9------------9----9---------7---------7----7---------5-----------
E|-7----7----7-----------------5----5----5--------------3----3----3------

Stave 2:

E|--------------------------------------
B|-3----3---------3---------3---------5-
G|-4----4---------4---------4---------6-
D|-5----5---------5---------5---------7-
A|-5----5---------5---------5---------7-
E|-----------3---------3---------5------

Stave 3:

E|-------------------------------------------------------------
B|---7-12----10----12----12----10----7--------7----------------
G|---7-11----9-----11----11----9-----7----7-9-7----7----9------
D|---9------------------------------------7-9------7----9----7-
A|---9-------------------------------------------------------7-
E|-7-----------------------------------------------------------

Stave 4:

E|-------------------------------------------------------------------------------
B|-------------------------------------------------------------------------------
G|-6-6-6-6-6-6-6-6----4-4-4-4-4-4-4-4----6-6-6-6-6-6-6-6-------------------------
D|-7-7-7-7-7-7-7-7----5-5-5-5-5-5-5-5----7-7-7-7-7-7-7-7----4-4-4-4-4-4-4-4-4----
A|-7-7-7-7-7-7-7-7----5-5-5-5-5-5-5-5----7-7-7-7-7-7-7-7----4-4-4-4-4-4-4-4-4----
E|-5-5-5-5-5-5-5-5----3-3-3-3-3-3-3-3----5-5-5-5-5-5-5-5----2-2-2-2-2-2-2-2-2----

Stave 5:

E|---------------------------------------------------------------------------------------
B|-15----17-15-------------------------17----15------------------------------------------
G|----------------16----14----14-16----------------16------------------------------------
D|-------------------------------------------------------14------------------------------
A|-------------------------------------------------------------14----12----14----14----9\
E|---------------------------------------------------------------------------------------

Stave 6:

E|------------------------------------------------------------------------------------------------------------------
B|------------------------------------------------------------------------------------------------------------------
G|------------------------------------------------------------------------------------------------------------------
D|-4----4--------4----4----4----4----4----4----5----5----5----5----5----5-5-5----4-4-4-4-4-4-4-4----5-5-5-5-5-5-5-5-
A|-4----4--------4----4----4----4----4----4----5----5----5----5----5----5-5-5----4-4-4-4-4-4-4-4----5-5-5-5-5-5-5-5-
E|-2----2--------2----2----2----2----2----2----3----3----3----3----3----3-3-3----2-2-2-2-2-2-2-2----3-3-3-3-3-3-3-3-

Stave 7:

E|-----------------------------------------------------------------------------
B|-----------------------------------------------------------------------6\7/6-
G|-----------------------------------------------------------------------------
D|-4-4-4-4-4-4-4-4----5-5-5-5-5-5-5-5----7-7-7-7-7-7-7-7----4-4-4-4-4----------
A|-4-4-4-4-4-4-4-4----5-5-5-5-5-5-5-5----7-7-7-7-7-7-7-7----4-4-4-4-4----------
E|-2-2-2-2-2-2-2-2----3-3-3-3-3-3-3-3----5-5-5-5-5-5-5-5----2-2-2-2-2----------

Stave 8:

E|-------------------------------------------------------
B|-15/17\15-17b15/17\15----------------------------------
G|----------------------16----14/16\14----11----9/11\9---
D|-----------------------------------------------------9-
A|-------------------------------------------------------
E|-------------------------------------------------------

http://www.guitartabcreator.com
Guitar Tab Creator is intended to store guitar tab created through the tool. It currently does not support in-line text editing. Any text you place in here will be lost. If you need to comment on your tab, please use the "Tab Notes" section located below.