MUS-143 Proj-1

01234567891011121314151617181920212223
E
B
G
D
A
E
B
0 1 2 3 4 5 6 7 8 9 10 11 12 13 14 15 16 17 18 19 20 21 22 23
(/) Slide Up  (\) Slide Down  (h) Hammer On  (p) Pull Off  (b) Bend (r) Release (v) Vibrato

Stave 1:

E|---------------------8---
B|--6-----5-----10-----10--
G|--7-----5-----10-----9---
D|--7-----5-----10-----10--
A|--5-----3-----8------8---
E|-------------------------

Stave 2:

E|---------------------------------------------------------------------------------------------------------------
B|------------------------------------------------------------------------------8--5--6--5-----6--5--8--5--6--5--
G|-------------------------------------------------------------------5/7-----5-----------------------------------
D|-------------------5--2--3--2-----3--2--5--2--3--2-----------5--7-------7--------------------------------------
A|-----0--3/5--0--3----------------------------------------------------------------------------------------------
E|--3------------------------------------------------------------------------------------------------------------

Stave 3:

E|------------------------------------------------
B|------------------------------------8-----------
G|------9---------9---------10-----9-----9--------
D|------10--------10-----7---------7--------7-----
A|--8----------7---------8---------8-----------8--
E|--10---------8----------------------------------

Stave 4:

E|--------------------------------------------------------------------------------------------------
B|--------------------------------------------------------------------------------------------------
G|--------------------------------------------------------------------------------------------------
D|--7--7--7--7--7--7--7-----5--5--5--5--5--5--7-----------------------------------------------------
A|--5--5--5--5--5--5--5--2--3--3--3--3--3--3--5--2--3--3--3--3--3--3--7--5--2--2--2--2--2--2--5--3--
E|-----------------------0-----------------------0--1--1--1--1--1--1--5--3--0--0--0--0--0--0--3--1--

							http://www.guitartabcreator.com
Chords

Instruments
{"strings":[[[".","_",".","_",".","_",8],[6,"_",5,"_",10,"_",10],[7,"_",5,"_",10,"_",9],[7,"_",5,"_",10,"_",10],[5,"_",3,"_",8,"_",8],[".","_",".","_",".","_","."]],[[".",".",".",".",".",".",".",".",".",".",".","_",".",".",".",".",".",".","_","_","_",".",".",".",".",".",".",".",".",".",".",".","_",".",".",".",".",".","."],[".",".",".",".",".",".",".",".",".",".",".","_",".",".",".",".",".",".","_","_","_",".",".",".",".",".",".",".",8,5,6,5,"_",6,5,8,5,6,5],[".",".",".",".",".",".",".",".",".",".",".","_",".",".",".",".",".",".","_","_","_",".",".",5,"/",7,".",5,".",".",".",".","_",".",".",".",".",".","."],[".",".",".",".",".",".",".",5,2,3,2,"_",3,2,5,2,3,2,"_","_","_",5,7,".",".",".",7,".",".",".",".",".","_",".",".",".",".",".","."],[".",0,3,"/",5,0,3,".",".",".",".","_",".",".",".",".",".",".","_","_","_",".",".",".",".",".",".",".",".",".",".",".","_",".",".",".",".",".","."],[3,".",".",".",".",".",".",".",".",".",".","_",".",".",".",".",".",".","_","_","_",".",".",".",".",".",".",".",".",".",".",".","_",".",".",".",".",".","."]],[[".",".","_",".",".","_",".",".","_",".",".",".",".","."],[".",".","_",".",".","_",".",".","_",".",8,".",".","."],[".",9,"_",".",9,"_",".",10,"_",9,".",9,".","."],[".",10,"_",".",10,"_",7,".","_",7,".",".",7,"."],[8,".","_",7,".","_",8,".","_",8,".",".",".",8],[10,".","_",8,".","_",".",".","_",".",".",".",".","."]],[[".",".",".",".",".",".",".",".",".",".",".",".",".",".",".",".",".",".",".",".",".",".",".",".",".",".",".",".",".",".",".","."],[".",".",".",".",".",".",".",".",".",".",".",".",".",".",".",".",".",".",".",".",".",".",".",".",".",".",".",".",".",".",".","."],[".",".",".",".",".",".",".",".",".",".",".",".",".",".",".",".",".",".",".",".",".",".",".",".",".",".",".",".",".",".",".","."],[7,7,7,7,7,7,7,".",5,5,5,5,5,5,7,".",".",".",".",".",".",".",".",".",".",".",".",".",".",".",".","."],[5,5,5,5,5,5,5,2,3,3,3,3,3,3,5,2,3,3,3,3,3,3,7,5,2,2,2,2,2,2,5,3],[".",".",".",".",".",".",".",0,".",".",".",".",".",".",".",0,1,1,1,1,1,1,5,3,0,0,0,0,0,0,3,1]]],"numberofstrings":6,"notes":["E","B","G","D","A","E","B"],"capo":0,"stringnotes":["E4","B3","G3","D3","A2","E2"],"comments":["Stave 1:","Stave 2:","Stave 3:","Stave 4:"],"timing":[["W",null,"W",null,"W",null,"W"],["W","W","W",null,"W","W","W","W","W","W","W",null,"W","W","W","W","W","W",null,null,null,"W","W","W",null,"W","W","W","W","W","W","W",null,"W","W","W","W","W","W"],["W","W",null,"W","W","W","W","W",null,"W","W","W","W","W"],["W","W","W","W","W","W","W","W","W","W","W","W","W","W","W","W","W","W","W","W","W","W","W","W","W","W","W","W","W","W","W","W"]],"timingvisible":false,"tabcounter":31,"stave":3,"totalstaves":4,"instrument":"6guitar","selectedtuning":"6_standard","version":"13"}

Member for

2 months 2 weeks
Submitted by Nick Blake on Thu, 2021-01-21 12:48