idk my solo

01234567891011121314151617181920212223
E
B
G
D
A
E
B
0 1 2 3 4 5 6 7 8 9 10 11 12 13 14 15 16 17 18 19 20 21 22 23
(/) Slide Up  (\) Slide Down  (h) Hammer On  (p) Pull Off  (b) Bend (r) Release (v) Vibrato

Stave 1:

E|----------------------------------------------------------------------------------------------------------------------------------------------------------12--
B|-------------------------------------------------------------------------------------------5--------0-----------------------------------------13------10------
G|----------------10----------12\7p5--------5--6--7--10b11------10b12----------10---------5--------3-----------12-------------------12------10------13----------
D|-------------7--10----------12------7--5------------------12---------12----------12--5--------2-------------------------------10------12----------------------
A|------8--10---------12--10-----------------------------------------------12----------------------------3/12---------------12----------------------------------
E|--10----------------------------------------------------------------------------------------------------------------------------------------------------------

Stave 2:

E|--12-----------------------------
B|--12--15-------------------------
G|--12------13--9------------------
D|--------------9---12--10--9--10--
A|--------------10-----------------
E|---------------------------------

							http://www.guitartabcreator.com
Chords

Instruments
{"strings":[[[".",".",".",".",".",".",".",".",".",".",".",".",".",".",".",".",".",".",".",".",".",".",".",".",".",".",".",".",".",".",".",".",".",".",".",".",".",".","_","_","_",".",".",".",".",".",".",".",".",12],[".",".",".",".",".",".",".",".",".",".",".",".",".",".",".",".",".",".",".",".",".",".",".",".",".",".",".",".",".",".",5,".",".",0,".",".",".",".","_","_","_",".",".",".",".",".",13,".",10,"."],[".",".",".",".",10,".",".",12,"\\",7,"p",5,".",".",5,6,7,10,"b",11,".",10,"b",12,".",".",10,".",".",5,".",".",3,".",".",".",".",12,"_","_","_",".",".",12,".",10,".",13,".","."],[".",".",".",7,10,".",".",12,".",".",".",".",7,5,".",".",".",".",".",".",12,".",".",".",12,".",".",12,5,".",".",2,".",".",".",".",".",".","_","_","_",".",10,".",12,".",".",".",".","."],[".",8,10,".",".",12,10,".",".",".",".",".",".",".",".",".",".",".",".",".",".",".",".",".",".",12,".",".",".",".",".",".",".",".",3,"/",12,".","_","_","_",12,".",".",".",".",".",".",".","."],[10,".",".",".",".",".",".",".",".",".",".",".",".",".",".",".",".",".",".",".",".",".",".",".",".",".",".",".",".",".",".",".",".",".",".",".",".",".","_","_","_",".",".",".",".",".",".",".",".","."]],[[12,".",".",".",".",".",".","."],[12,15,".",".",".",".",".","."],[12,".",13,9,".",".",".","."],[".",".",".",9,12,10,9,10],[".",".",".",10,".",".",".","."],[".",".",".",".",".",".",".","."]]],"numberofstrings":6,"notes":["E","B","G","D","A","E","B"],"capo":0,"stringnotes":["E4","B3","G3","D3","A2","E2"],"comments":["Stave 1:","Stave 2:"],"timing":[["W","W","W","W","W","W","W","W",null,"W",null,"W","W","W","W","W","W","W",null,"W","W","W","W","W","W","W","W","W","W","W","W","W","W","W","W","W","W","W","W","W","W","W","W","W","W","W","W","W","W","W","W"],["W","W","W","W","W","W","W","W"]],"timingvisible":false,"tabcounter":8,"stave":1,"totalstaves":2,"instrument":"6guitar","selectedtuning":"6_standard","version":"13"}

Member for

3 months 3 weeks
Submitted by Nick Blake on Sat, 2021-03-06 18:58