Sound will begin in 5 seconds

Vibe and Direct - Booby's Got A Babysitter Solo

01234567891011121314151617181920212223
E
B
G
D
A
E
B
0 1 2 3 4 5 6 7 8 9 10 11 12 13 14 15 16 17 18 19 20 21 22 23
(/) Slide Up  (\) Slide Down  (h) Hammer On  (p) Pull Off  (b) Bend (r) Release (v) Vibrato

Stave 1:

E|---------------------------------------------------------------------
B|-------12--12--10--8--10--12--8-----8--10--11--12--------------8-----
G|--7/9----------------------------------------------9--9--7--9-----9--
D|---------------------------------------------------------------------
A|---------------------------------------------------------------------
E|---------------------------------------------------------------------

Stave 2:

E|---------------------------------------------------------10--------------------
B|-------12--12--10--8--10--12--8-----8--10--11--12------------12--13\12---------
G|--7/9----------------------------------------------9--9-----------------12--9--
D|-------------------------------------------------------------------------------
A|-------------------------------------------------------------------------------
E|-------------------------------------------------------------------------------

Stave 3:

E|---------------------------------------------------
B|-------12--12--10--8--10--12--8-----8--10--11--12--
G|--7/9----------------------------------------------
D|---------------------------------------------------
A|---------------------------------------------------
E|---------------------------------------------------

Stave 4:

E|---------------
B|---------------
G|--9/12\9--7/9--
D|---------------
A|---------------
E|---------------

Stave 5:

E|--------------------
B|--15--12--8--10/12--
G|--------------------
D|--------------------
A|--------------------
E|--------------------

http://www.guitartabcreator.com
Guitar Tab Creator is intended to store guitar tab created through the tool. It currently does not support in-line text editing. Any text you place in here will be lost. If you need to comment on your tab, please use the "Tab Notes" section located below.