Sound will begin in 5 seconds

It's Only Blues

01234567891011121314151617181920212223
E
B
G
D
A
E
B
0 1 2 3 4 5 6 7 8 9 10 11 12 13 14 15 16 17 18 19 20 21 22 23
Song Science #1: How Pros Use 6 Chords to Write Hit Songs
(/) Slide Up  (\) Slide Down  (h) Hammer On  (p) Pull Off  (b) Bend (r) Release (v) Vibrato

Stave 1:

E|------------------------------|-----------------------------------------|--12h14--15v--15p12--
B|------------------------------|--8--8h10--10--10/12--12/13--13--13/15v--|---------------------
G|------------9--9b10b12b10--9--|-----------------------------------------|---------------------
D|--5/7--7h9--------------------|-----------------------------------------|---------------------
A|------------------------------|-----------------------------------------|---------------------
E|------------------------------|-----------------------------------------|---------------------

Stave 2:

E|--12v--12---------------------------------------------------------------------------------------------------|---------------------------------------------
B|-----------13--12-------------------------------------------------------------------------------------------|---------------------------------------------
G|-------------------14--12--14-------------------------------------------------------------------------------|------14---------------14--14--14p13--13h14--
D|-------------------------------14--12-----------------------------------------------------------------------|--14------14p12h14/15------------------------
A|------------------------------------------------------------------------------------------------------------|---------------------------------------------
E|------------------------------------------------------------------------------------------------------------|---------------------------------------------

Stave 3:

E|--------------------------------------|--15--15/17------19--19--19/20--20b22--19--17--|--15--
B|--------------------13--13h15p13--12--|-------------17--------------------------------|------
G|--13h14--14p12------------------------|-----------------------------------------------|------
D|----------------14--------------------|-----------------------------------------------|------
A|--------------------------------------|-----------------------------------------------|------
E|--------------------------------------|-----------------------------------------------|------

Stave 4:

E|--15--17--17--|--
B|--------------|--
G|--------------|--
D|--------------|--
A|--------------|--
E|--------------|--

http://www.guitartabcreator.com
Guitar Tab Creator is intended to store guitar tab created through the tool. It currently does not support in-line text editing. Any text you place in here will be lost. If you need to comment on your tab, please use the "Tab Notes" section located below.