Sound will begin in 5 seconds

The Star-Spangled Banner - Open D

01234567891011121314151617181920212223
E
B
G
D
A
E
B
0 1 2 3 4 5 6 7 8 9 10 11 12 13 14 15 16 17 18 19 20 21 22 23
(/) Slide Up  (\) Slide Down  (h) Hammer On  (p) Pull Off  (b) Bend (r) Release (v) Vibrato

Stave 1:

D |----------------------10--------14--12--10-------------
A |--10--------------10----------------------------9--10--
Gb|------10------10----------------------------10---------
D |----------10-------------------------------------------
A |-------------------------------------------------------
D |-------------------------------------------------------

Stave 2:

D |----------14--12--10--9--------7--9--10--10--------------
A |--10--10-------------------------------------10----------
Gb|-------------------------------------------------10------
D |-----------------------------------------------------10--
A |---------------------------------------------------------
D |---------------------------------------------------------

Stave 3:

D |----------------------10--------14--12--10-------------
A |--10--------------10----------------------------9--10--
Gb|------10------10----------------------------10---------
D |----------10-------------------------------------------
A |-------------------------------------------------------
D |-------------------------------------------------------

Stave 4:

D |----------14--12--10--9-----7--9--10--10--------------
A |--10--10----------------------------------10----------
Gb|----------------------------------------------10------
D |--------------------------------------------------10--
A |------------------------------------------------------
D |------------------------------------------------------

Stave 5:

D |--14--14--14--15--17--17-----15--14--12--14--15--15--
A |-----------------------------------------------------
Gb|-----------------------------------------------------
D |-----------------------------------------------------
A |-----------------------------------------------------
D |-----------------------------------------------------

Stave 6:

D |--15--14--12--10--9------------9--10-------------
A |---------------------------12-------------9--10--
Gb|--------------------------------------10---------
D |-------------------------------------------------
A |-------------------------------------------------
D |-------------------------------------------------

Stave 7:

D |------10--10--10--9--------------12--15--14--12--10--9--
A |--10-----------------12--12--12-------------------------
Gb|--------------------------------------------------------
D |--------------------------------------------------------
A |--------------------------------------------------------
D |--------------------------------------------------------

Stave 8:

D |----------10--12--14--15--17-----10--12--14--15--12--10--
A |--10--10-------------------------------------------------
Gb|---------------------------------------------------------
D |---------------------------------------------------------
A |---------------------------------------------------------
D |---------------------------------------------------------

http://www.guitartabcreator.com
Guitar Tab Creator is intended to store guitar tab created through the tool. It currently does not support in-line text editing. Any text you place in here will be lost. If you need to comment on your tab, please use the "Tab Notes" section located below.