Sound will begin in 5 seconds

Nothing can compare

01234567891011121314151617181920212223
E
B
G
D
A
E
B
0 1 2 3 4 5 6 7 8 9 10 11 12 13 14 15 16 17 18 19 20 21 22 23
Song Science #1: How Pros Use 6 Chords to Write Hit Songs
(/) Slide Up  (\) Slide Down  (h) Hammer On  (p) Pull Off  (b) Bend (r) Release (v) Vibrato

(W|WW) Whole (H|HH) Half (Q|QQ) Quarter (E|EE) 8th (S|SS) 16th (T|TT) 32nd (X|XX) 64th

Stave 1:
t: Q W Q W Q W Q Q Q Q
E|--------|--------|--------|--------------
B|--------|--------|--------|--------------
G|-----4--|-----4--|-----4--|-----4-----4--
D|--------|--------|--------|--------------
A|--2-----|--0-----|--------|--5-----0-----
E|--------|--------|--3-----|--------------

Stave 2:
t: Q H Q E E E Q H Q E E E Q Q H Q E E E H Q Q Q Q
E|-------------------|---------------------|-----------0h2p0-----|--------------
B|-------------------|-----------2h3p2-----|---------------------|--------------
G|-----4-----4h5--4--|-----4------------4--|-----4------------2--|-----4-----4--
D|-------------------|---------------------|---------------------|--------------
A|--2-----2----------|--0-----0------------|---------------------|--5-----0-----
E|-------------------|---------------------|--3-----3------------|--------------

Stave 3:
t: Q Q Q Q Q E E Q Q Q Q Q Q E E E H Q Q Q Q Q E E E H
E|-------------------------|---------------------------|-----------------0h2p0-----|--
B|-------------------------|-----------------2h3p2-----|---------------------------|--
G|--------4--------4h5--4--|--------4---------------4--|--------4---------------2--|--
D|-----0--------0----------|-----2--------2------------|-----0--------0------------|--
A|--2--------2-------------|--0--------0---------------|---------------------------|--
E|-------------------------|---------------------------|--3--------3---------------|--

Stave 4:
t: Q Q Q Q
E|--------------
B|--------------
G|-----4-----4--
D|--------------
A|--5-----0-----
E|--------------

Stave 5:
t: Q H E E E Q H Q Q E E E E E E E E Q W Q Q Q Q
E|----------------|----------------------------------|--------|--------------|--
B|--------2h3--2--|--------2--3--3h5p3--3--2h3p2--2--|--------|--------------|--
G|-----4----------|-----4----------------------------|-----4--|-----4-----4--|--
D|----------------|----------------------------------|--------|--------------|--
A|--2-------------|--0-------------------------------|--------|--5-----0-----|--
E|----------------|----------------------------------|--3-----|--------------|--

Stave 6:
t: Q H Q Q Q Q Q Q E E E E E E E E Q H Q Q Q Q
E|-------------------------|----------------------------|--------------
B|--------3--5/7--5--------|--5h7p5--5--3h5p3--2--------|--------------
G|-----4----------------4--|-------------------------4--|-----4-----4--
D|-------------------------|----------------------------|--------------
A|--2----------------0-----|----------------------------|--5-----0-----
E|-------------------------|----------------------3-----|--------------

Stave 7:
t: Q H Q Q Q Q Q H Q E E E E E Q Q Q Q Q Q Q Q
E|--------------------|-----------------------------------|--------------
B|--------3--5--3--2--|--------2--2h3p2--2----------------|--------------
G|-----4--------------|-----4---------------2/4--2-----4--|-----4-----4--
D|--------------------|-----------------------------------|--------------
A|--2-----------------|--0--------------------------------|--5-----0-----
E|--------------------|-----------------------------3-----|--------------

http://www.guitartabcreator.com
Guitar Tab Creator is intended to store guitar tab created through the tool. It currently does not support in-line text editing. Any text you place in here will be lost. If you need to comment on your tab, please use the "Tab Notes" section located below.