Enter Sandman

Chords

01234567891011121314151617181920212223
E
B
G
D
A
E
B
0 1 2 3 4 5 6 7 8 9 10 11 12 13 14 15 16 17 18 19 20 21 22 23
(/) Slide Up  (\) Slide Down  (h) Hammer On  (p) Pull Off  (b) Bend (r) Release (v) Vibrato

Stave 1:

E|-----------------------
B|-----------------------
G|-----------------------
D|-----------------------
A|--2--2--2/7------------
E|--0--0-------6--5v-----

Stave 2:

E|--------------------------
B|--------------------------
G|--------------------------
D|--5--4--4--4--4--5--4-----
A|--5--4--4--4--4--5--4-----
E|--3--0--2--0--2--3--2-----

Stave 3:

E|-----------------------------------------------------------------------------
B|-----------------------------------------------------------------------------
G|-----------------------------------------------------------------------------
D|-----------------------------3-----------------------5-----------------------
A|--2--2--2--2--2--2--2--2--2--3--2--2--2--2--2--2--2--5--2--2--2--2--2--2--2--
E|--0--0--0--0--0--0--0--0--0--1--0--0--0--0--0--0--0--3--0--0--0--0--0--0--0--

Stave 4:

E|--------------------
B|--------------------
G|--------2-----------
D|-----4-----------4--
A|-----------3--2-----
E|--2-----------------

Stave 5:

E|--------------------------------------------------------------------------------------
B|--------------------------------------------------------------------------------------
G|-----5--4-----5--4-----5--4--------------2-----4--------5--4--------------2-----4-----
D|--2--5--4--2--5--4--2--5--4--2--2--5--2-----2-----2--2--5--4--2--2--5--2-----2-----2--
A|--2--3--2--2--3--2--2--3--2--------------------------2--3--2--------------------------
E|--0--------0--------0--------------------------------0--------------------------------

							http://www.guitartabcreator.com
Instruments
{"strings":[[[".",".",".","_","_",".",".","_","_"],[".",".",".","_","_",".",".","_","_"],[".",".",".","_","_",".",".","_","_"],[".",".",".","_","_",".",".","_","_"],[2,2,2,"/",7,".",".","_","_"],[0,0,".","_","_",6,5,"v","_"]],[[".",".",".",".",".",".",".","."],[".",".",".",".",".",".",".","."],[".",".",".",".",".",".",".","."],[5,4,4,4,4,5,4,"."],[5,4,4,4,4,5,4,"."],[3,0,2,0,2,3,2,"."]],[[".",".",".",".",".",".",".",".",".",".",".",".",".",".",".",".",".",".",".",".",".",".",".",".","."],[".",".",".",".",".",".",".",".",".",".",".",".",".",".",".",".",".",".",".",".",".",".",".",".","."],[".",".",".",".",".",".",".",".",".",".",".",".",".",".",".",".",".",".",".",".",".",".",".",".","."],[".",".",".",".",".",".",".",".",".",3,".",".",".",".",".",".",".",5,".",".",".",".",".",".","."],[2,2,2,2,2,2,2,2,2,3,2,2,2,2,2,2,2,5,2,2,2,2,2,2,2],[0,0,0,0,0,0,0,0,0,1,0,0,0,0,0,0,0,3,0,0,0,0,0,0,0]],[[".",".",".",".",".","."],[".",".",".",".",".","."],[".",".",2,".",".","."],[".",4,".",".",".",4],[".",".",".",3,2,"."],[2,".",".",".",".","."]],[[".",".",".",".",".",".",".",".",".",".",".",".",".",".",".",".",".",".",".",".",".",".",".",".",".",".",".","."],[".",".",".",".",".",".",".",".",".",".",".",".",".",".",".",".",".",".",".",".",".",".",".",".",".",".",".","."],[".",5,4,".",5,4,".",5,4,".",".",".",".",2,".",4,".",".",5,4,".",".",".",".",2,".",4,"."],[2,5,4,2,5,4,2,5,4,2,2,5,2,".",2,".",2,2,5,4,2,2,5,2,".",2,".",2],[2,3,2,2,3,2,2,3,2,".",".",".",".",".",".",".",".",2,3,2,".",".",".",".",".",".",".","."],[0,".",".",0,".",".",0,".",".",".",".",".",".",".",".",".",".",0,".",".",".",".",".",".",".",".",".","."]]],"numberofstrings":6,"notes":["E","B","G","D","A","E","B"],"capo":0,"stringnotes":["E4","B3","G3","D3","A2","E2"],"comments":["Stave 1:","Stave 2:","Stave 3:","Stave 4:","Stave 5:"],"timing":[["W","W","W",null,null,"W","W"],["W","W","W","W","W","W","W"],["W","W","W","W","W","W","W","W","W","W","W","W","W","W","W","W","W","W","W","W","W","W","W","W","W"],["W","W","W","W","W","W"],["W","W","W","W","W","W","W","W","W","W","W","W","W","W","W","W","W","W","W","W","W","W","W","W","W","W","W","W"]],"timingvisible":false,"tabcounter":28,"stave":4,"totalstaves":5,"instrument":"6guitar","selectedtuning":"6_standard","version":"13"}

Member for

3 weeks 4 days
Submitted by Newbienathan on Mon, 2020-10-26 07:42