BCK N BLK

Chords

01234567891011121314151617181920212223
E
B
G
D
A
E
B
0 1 2 3 4 5 6 7 8 9 10 11 12 13 14 15 16 17 18 19 20 21 22 23
(/) Slide Up  (\) Slide Down  (h) Hammer On  (p) Pull Off  (b) Bend (r) Release (v) Vibrato

Stave 1:

E|-----2--2--2-----------3--0----------------
B|-----3--3--3--2--2--2--------3--0----------
G|-----2--2--2--2--2--2--------------2b3--0--
D|--1-----------2--2--2----------------------
A|--1-----------0--0--0----------------------
E|--0----------------------------------------

Stave 2:

E|-----2--2--2-----------------------------------
B|-----3--3--3--2--2--2--------------------------
G|-----2--2--2--2--2--2--------------------------
D|--1-----------2--2--2--------------------------
A|--1-----------0--0--0--2-----2-----2-----2-----
E|--0-----------------------3-----4-----5-----6--

							http://www.guitartabcreator.com
Instruments
{"strings":[[[".",2,2,2,".",".",".",3,0,".",".",".",".",".","."],[".",3,3,3,2,2,2,".",".",3,0,".",".",".","."],[".",2,2,2,2,2,2,".",".",".",".",2,"b",3,0],[1,".",".",".",2,2,2,".",".",".",".",".",".",".","."],[1,".",".",".",0,0,0,".",".",".",".",".",".",".","."],[0,".",".",".",".",".",".",".",".",".",".",".",".",".","."]],[[".",2,2,2,".",".",".",".",".",".",".",".",".",".","."],[".",3,3,3,2,2,2,".",".",".",".",".",".",".","."],[".",2,2,2,2,2,2,".",".",".",".",".",".",".","."],[1,".",".",".",2,2,2,".",".",".",".",".",".",".","."],[1,".",".",".",0,0,0,2,".",2,".",2,".",2,"."],[0,".",".",".",".",".",".",".",3,".",4,".",5,".",6]]],"numberofstrings":6,"notes":["E","B","G","D","A","E","B"],"capo":0,"stringnotes":["E4","B3","G3","D3","A2","E2"],"comments":["Stave 1:","Stave 2:"],"timing":[[null,null,null,null,null,null,null,"W","W","W","W","W","W","W","W","W"],["W","W","W","W","W","W","W","W","W","W","W","W","W","W","W","W","W","W"]],"timingvisible":false,"tabcounter":15,"stave":0,"totalstaves":2,"instrument":"6guitar","selectedtuning":"6_standard","version":"13"}

Member for

1 month 1 week
Submitted by Newbienathan on Fri, 2020-10-23 11:01