747

Chords

01234567891011121314151617181920212223
E
B
G
D
A
E
B
0 1 2 3 4 5 6 7 8 9 10 11 12 13 14 15 16 17 18 19 20 21 22 23
(/) Slide Up  (\) Slide Down  (h) Hammer On  (p) Pull Off  (b) Bend (r) Release (v) Vibrato

Stave 1:

E|--15b17--15--12-----------------------------------------------15b17-----17b19--17--19--17----------15--
B|-----------------15--12--------------------12--15--12--15b17-------------------------------17--15------
G|-------------------------14b12--16--12-----------------------------------------------------------------
D|-------------------------------------------------------------------------------------------------------
A|-------------------------------------------------------------------------------------------------------
E|-------------------------------------------------------------------------------------------------------

Stave 2:

E|------------------------------------------------------------------------------------------------
B|--17--15--------------------------------------------------------------------------------15--17--
G|----------14------14---------------------------------------------------------14--16-------------
D|--------------17------17-----14--14-----14-----14--17--14-----14--16--17------------------------
A|------------------------------------------------------------------------------------------------
E|------------------------------------------------------------------------------------------------

Stave 3:

E|------14--15--17--17b19--15--14--15--14-------------------------------------------------
B|--17-------------------------------------15--14-----15--14--------------------------12--
G|------------------------------------------------------------16--14--16--14----------12--
D|----------------------------------------------------------------------------14--12------
A|----------------------------------------------------------------------------------------
E|----------------------------------------------------------------------------------------

Stave 4:

E|---------------------------
B|---------------------------
G|---------------------------
D|--14--12-------------------
A|----------14--13--12\10\0--
E|---------------------------

Stave 5:

E|--------------------------------
B|--------------------------------
G|--9--5-----7--7-----------------
D|--9--5-----7--7--7--------------
A|--7--3-----5--5--7--------------
E|-----------------5-----3--2--0--

Stave 6:

E|--------------------------------
B|--------------------------------
G|--9--5-----5--7--9--------------
D|--9--5-----5--7--9--------------
A|--7--3-----3--5--7--------------
E|-----------------------3--2--0--

							http://www.guitartabcreator.com
Instruments
{"strings":[[[15,"b",17,15,12,".",".",".",".",".",".",".","_",".",".",".",".",".",".",15,"b",17,"_",17,"b",19,17,19,17,".",".",15],[".",".",".",".",".",15,12,".",".",".",".",".","_",12,15,12,15,"b",17,".",".",".","_",".",".",".",".",".",".",17,15,"."],[".",".",".",".",".",".",".",14,"b",12,16,12,"_",".",".",".",".",".",".",".",".",".","_",".",".",".",".",".",".",".",".","."],[".",".",".",".",".",".",".",".",".",".",".",".","_",".",".",".",".",".",".",".",".",".","_",".",".",".",".",".",".",".",".","."],[".",".",".",".",".",".",".",".",".",".",".",".","_",".",".",".",".",".",".",".",".",".","_",".",".",".",".",".",".",".",".","."],[".",".",".",".",".",".",".",".",".",".",".",".","_",".",".",".",".",".",".",".",".",".","_",".",".",".",".",".",".",".",".","."]],[[".",".",".",".",".",".","_",".",".","_",".","_",".",".",".","_",".",".",".","_",".",".","_",".","."],[17,15,".",".",".",".","_",".",".","_",".","_",".",".",".","_",".",".",".","_",".",".","_",15,17],[".",".",14,".",14,".","_",".",".","_",".","_",".",".",".","_",".",".",".","_",14,16,"_",".","."],[".",".",".",17,".",17,"_",14,14,"_",14,"_",14,17,14,"_",14,16,17,"_",".",".","_",".","."],[".",".",".",".",".",".","_",".",".","_",".","_",".",".",".","_",".",".",".","_",".",".","_",".","."],[".",".",".",".",".",".","_",".",".","_",".","_",".",".",".","_",".",".",".","_",".",".","_",".","."]],[[".",14,15,17,17,"b",19,15,14,15,14,".",".","_",".",".",".",".",".",".",".",".","."],[17,".",".",".",".",".",".",".",".",".",".",15,14,"_",15,14,".",".",".",".",".",".",12],[".",".",".",".",".",".",".",".",".",".",".",".",".","_",".",".",16,14,16,14,".",".",12],[".",".",".",".",".",".",".",".",".",".",".",".",".","_",".",".",".",".",".",".",14,12,"."],[".",".",".",".",".",".",".",".",".",".",".",".",".","_",".",".",".",".",".",".",".",".","."],[".",".",".",".",".",".",".",".",".",".",".",".",".","_",".",".",".",".",".",".",".",".","."]],[[".",".",".",".",".",".",".",".","."],[".",".",".",".",".",".",".",".","."],[".",".",".",".",".",".",".",".","."],[14,12,".",".",".",".",".",".","."],[".",".",14,13,12,"\\",10,"\\",0],[".",".",".",".",".",".",".",".","."]],[[".",".","_",".",".",".","_",".",".","."],[".",".","_",".",".",".","_",".",".","."],[9,5,"_",7,7,".","_",".",".","."],[9,5,"_",7,7,7,"_",".",".","."],[7,3,"_",5,5,7,"_",".",".","."],[".",".","_",".",".",5,"_",3,2,0]],[[".",".","_",".",".",".","_",".",".","."],[".",".","_",".",".",".","_",".",".","."],[9,5,"_",5,7,9,"_",".",".","."],[9,5,"_",5,7,9,"_",".",".","."],[7,3,"_",3,5,7,"_",".",".","."],[".",".","_",".",".",".","_",3,2,0]]],"numberofstrings":6,"notes":["E","B","G","D","A","E","B"],"capo":0,"stringnotes":["E4","B3","G3","D3","A2","E2"],"comments":["Stave 1:","Stave 2:","Stave 3:","Stave 4:","Stave 5:","Stave 6:"],"timing":[["W",null,"W","W","W","W","W","W",null,"W","W","W",null,"W","W","W","W",null,"W","W",null,"W",null,"W",null,"W","W","W","W","W","W","W"],["W","W","W","W","W","W",null,"W","W",null,"W",null,"W","W","W",null,"W","W","W",null,"W","W",null,"W","W"],["W","W","W","W","W",null,"W","W","W","W","W","W","W",null,"W","W","W","W","W","W","W","W","W"],["W","W","W","W","W",null,"W",null,"W"],["W","W",null,"W","W","W",null,"W","W","W"],["W","W",null,"W","W","W",null,"W","W","W"]],"timingvisible":false,"tabcounter":10,"stave":5,"totalstaves":6,"instrument":"6guitar","selectedtuning":"6_standard","version":"13"}

Member for

3 weeks 4 days
Submitted by Newbienathan on Fri, 2020-11-20 09:45