Sound will begin in 5 seconds

NFB 1

01234567891011121314151617181920212223
E
B
G
D
A
E
B
0 1 2 3 4 5 6 7 8 9 10 11 12 13 14 15 16 17 18 19 20 21 22 23
Song Science #1: How Pros Use 6 Chords to Write Hit Songs
(/) Slide Up  (\) Slide Down  (h) Hammer On  (p) Pull Off  (b) Bend (r) Release (v) Vibrato

Stave 1:

G|-----------------------------------------------------------------------------------
D|-----------------------------------------------------------------------------------
A|--14--7--10--9--7--7--7--10--9--7--7--7-----------10--9--9--------------10------9--
E|-----------------------------------------8--8--8------------10--10--10------10-----

Stave 2:

G|--------------------------------------------------------------------
D|--------------------------------------------------------------------
A|--10--9--7--7--7--10--9--7--7--7-----------10--9--9------9--10--12--
E|----------------------------------8--8--8------------10-------------

Stave 3:

G|--
D|--
A|--
E|--

Stave 4:

G|---------
D|---------
A|-----10--
E|--7------

Stave 5:

G|--
D|--
A|--
E|--

Stave 6:

G|---------------------------------------------------------------------
D|---------------------------------------------------------------------
A|--7--10------9--10--12-----------------------------------------------
E|---------10-------------7--8--7--5--7--5--3--5--3--2--3--2--5--3--0--

Stave 7:

G|--------------------------7--7--------------------------------------------------------------------
D|--------5--5--7--7--9--9--------9--9--7--7--5--5--------7--7--5--5--4--4--5--5--4--4--------------
A|--7--7--------------------------------------------5--5--------------------------------7--7--5--5--
E|--------------------------------------------------------------------------------------------------

Stave 8:

G|--------------------------------------------------------------------------------------------------------
D|----------------------------10--10----------------------------------------------------------------------
A|--------7--7--8--8--10--10----------10--10--8--8--7--7--------5--5--------------------------------------
E|--8--8--------------------------------------------------7--7--------7--7--5--5--7--7--5--5--3--3--2--2--

Stave 9:

G|--------------------------
D|--------------------------
A|--------------3--2-----5--
E|--0--0--0--0--------3-----

http://www.guitartabcreator.com
Guitar Tab Creator is intended to store guitar tab created through the tool. It currently does not support in-line text editing. Any text you place in here will be lost. If you need to comment on your tab, please use the "Tab Notes" section located below.