Sound will begin in 5 seconds

bb bl

Chords
01234567891011121314151617181920212223
E
B
G
D
A
E
B
0 1 2 3 4 5 6 7 8 9 10 11 12 13 14 15 16 17 18 19 20 21 22 23
Song Science #1: How Pros Use 6 Chords to Write Hit Songs
(/) Slide Up  (\) Slide Down  (h) Hammer On  (p) Pull Off  (b) Bend (r) Release (v) Vibrato

Stave 1:

E|--_------------------------------------
B|--11-----11--8--8-----11-----11--11--8--
G|--12-----12--7--7-----12-----12--12--7--
D|--10-----9---8--8-----10-----9---9---8--
A|--11-----11--6--6-----11-----11--11--6--
E|--_------------------------------------

Stave 2:

E|--------------------------------------------------------------------------------
B|--------------11------------------------11--------------8--------------------7--
G|----------12------12----------------12---------------7-----7--------------7--6--
D|------10--------------10---------9----------------8-----------8--------8-----7--
A|--11-------------------------11----------------6--------------------6--------6--
E|--------------------------------------------------------------------------------

Stave 3:

E|------------------------------------------------------------
B|--------------11------------------------11------------6--7--
G|----------12------12----------------12------12--------7--6--
D|------10--------------10---------9--------------9-----5--7--
A|--11-------------------------11-----------------------6--6--
E|------------------------------------------------------------

Stave 4:

E|-----------------------------------------------------------------------------
B|--------------11------------------------11-----------8--------------------7--
G|----------12------12----------------12--12--------7-----7--------------7--6--
D|------10--------------10---------9------9------8-----------8--------8-----7--
A|--11-------------------------11-------------6--------------------6--------6--
E|-----------------------------------------------------------------------------

Stave 5:

E|------------------------------------------
B|--11--11--6--11--11--8--------------3--4--
G|--12--12--7--12--12--7--------------3--5--
D|--10--9---5--10--9---8--------------5--5--
A|--11--11--6--11--11--6--------------3--x--
E|------------------------------------3--4--

Stave 6:

E|-------------------------
B|--11--11--8--7-----------
G|--12--12--7--6-----------
D|--10--9---8--7-----------
A|--11--11--6--6-----------
E|-------------------------

http://www.guitartabcreator.com
Guitar Tab Creator is intended to store guitar tab created through the tool. It currently does not support in-line text editing. Any text you place in here will be lost. If you need to comment on your tab, please use the "Tab Notes" section located below.