Sound will begin in 5 seconds

Thursday Jam Session (Rhythm)

01234567891011121314151617181920212223
E
B
G
D
A
E
B
0 1 2 3 4 5 6 7 8 9 10 11 12 13 14 15 16 17 18 19 20 21 22 23
Song Science #1: How Pros Use 6 Chords to Write Hit Songs
(/) Slide Up  (\) Slide Down  (h) Hammer On  (p) Pull Off  (b) Bend (r) Release (v) Vibrato

Stave 1:

E|--------------------------------------------------------------
B|--------------------------------------------------------------
G|--------------------------------------------------------------
D|--x--x--0--x--0--x--x--0--x--x--0--x--x--5--5--5--------------
A|--x--x--0--x--0--x--x--0--x--x--0--x--x--5--5--5--------------
E|--x--x--0--x--0--x--x--0--x--x--0--x--x--5--5--5--------------

Stave 2:

E|--------------------------------------------------
B|--------------------------------------------------
G|--3--3-----3-----3--3-----3--3-----3--3-----------
D|--x--x--3--x--3--x--x--3--x--x--3--x--x--1--1--1--
A|--x--x--3--x--3--x--x--3--x--x--3--x--x--1--1--1--
E|--x--x--3--x--3--x--x--3--x--x--3--x--x--1--1--1--

Stave 3:

E|--------------------------------------------------
B|--------------------------------------------------
G|--------------------------------------------------
D|--x--x----x--x--x----x--x----x--x------------p9v--
A|--x--x----x--x--x----x--x----x--x-----------------
E|--x--x----x--x--x----x--x----x--x-----------------

Stave 4:

E|------------------------------------------------------------------------------
B|------------------------------------------------------------------------------
G|------------------------------------------------------------------------------
D|--x--x----x--x--x----x--x--x--------------------------------------------------
A|--x--x----x--x--x----x--x--x--5--5--5--5--7--7--7--7--9--9--9--9--3--3--3--3--
E|--x--x----x--x--x----x--x--x--x--x--x--x--x--x--x--x--x--x--x--x--x--x--x--x--

http://www.guitartabcreator.com
Guitar Tab Creator is intended to store guitar tab created through the tool. It currently does not support in-line text editing. Any text you place in here will be lost. If you need to comment on your tab, please use the "Tab Notes" section located below.