Sound will begin in 5 seconds

In this moment (Drop-C)

Chords
01234567891011121314151617181920212223
E
B
G
D
A
E
B
0 1 2 3 4 5 6 7 8 9 10 11 12 13 14 15 16 17 18 19 20 21 22 23
Song Science #1: How Pros Use 6 Chords to Write Hit Songs
(/) Slide Up  (\) Slide Down  (h) Hammer On  (p) Pull Off  (b) Bend (r) Release (v) Vibrato

Stave 1:

D|-----------------------------------------------------------------------------------------------------------|--
A|-----------------------------------------------------------------------------------------------------------|--
F|--------------------------------------------------------------------17--15--14-----------------17--15--14--|--
C|------15------15--17--15---------17------19--17--15---------15-------------------------15------------------|--
G|--13------13-----------------15------15-----------------17------17-----------------17------17--------------|--
C|-----------------------------------------------------------------------------------------------------------|--

Stave 2:

D|-----------------------------------------------|---------------------------------------------------|--
A|--10-----10--10--10--10-----10-----10--10--10--|--8------8---8---8---8------8------8---8---8---8---|--
F|--x------x---x---x---x------x------x---x---x---|--x------x---x---x---x------x------x---x---x---x---|--
C|--8------8---8---8---8------8------8---8---8---|--10-----10--10--10--10-----10-----10--10--10--10--|--
G|--8------8---8---8---8------8------8---8---8---|--10-----10--10--10--10-----10-----10--10--10--10--|--
C|--8------8---8---8---8------8------8---8---8---|--10-----10--10--10--10-----10-----10--10--10--10--|--

Stave 3:

D|--------------------------------------------------------------------------------|--
A|--------------------------------------------------------------------------------|--
F|--------------------------------------------------------------------------------|--
C|--3-----3--3--3--3-----3-----2-----5-----3-----3--3--3--3-----3-----3--3--3--3--|--
G|--3-----3--3--3--3-----3-----2-----5-----3-----3--3--3--3-----3-----3--3--3--3--|--
C|--3-----3--3--3--3-----3-----2-----5-----3-----3--3--3--3-----3-----3--3--3--3--|--

Stave 4:

D|--_-----------------------------------------------|----------------------------
A|--10-----10--10--10--10-----10-----10--10--10--10--|-----8------8---8---8---8---
F|--x------x---x---x---x------x------x---x---x---x---|----------------------------
C|--8------8---8---8---8------8------8---8---8---8---|-----10-----10--10--10--10--
G|--8------8---8---8---8------8------8---8---8---8---|-----10-----10--10--10--10--
C|--8------8---8---8---8------8------8---8---8---8---|-----10-----10--10--10--10--

http://www.guitartabcreator.com
Guitar Tab Creator is intended to store guitar tab created through the tool. It currently does not support in-line text editing. Any text you place in here will be lost. If you need to comment on your tab, please use the "Tab Notes" section located below.