Sound will begin in 5 seconds

Intro of that Ab9 mess I made (Corey) Tune to Ab Eb Ab Eb Ab Bb

01234567891011121314151617181920212223
E
B
G
D
A
E
B
0 1 2 3 4 5 6 7 8 9 10 11 12 13 14 15 16 17 18 19 20 21 22 23
Song Science #1: How Pros Use 6 Chords to Write Hit Songs
(/) Slide Up  (\) Slide Down  (h) Hammer On  (p) Pull Off  (b) Bend (r) Release (v) Vibrato

Stave 1:

Bb|----------------------------------------------|--
Ab|----------------------------------------------|--
Eb|----------------------------------------------|--
Ab|----------------------------------------------|--
Eb|--------------------------------------6b8v----|--
Ab|--0--0----0--0----0--0--0--0----0--0----------|--

Stave 2:

Bb|--------------------------------------------|--
Ab|--------------------------------------------|--
Eb|--------------------------------------------|--
Ab|--------------------------------------------|--
Eb|----------------7--5--3--0------------------|--
Ab|--0--0----0--0--------------5--3--5--0------|--

Stave 3:

Bb|------------------------------------------|--
Ab|------------------------------------------|--
Eb|------------------------------------------|--
Ab|------------------------------------------|--
Eb|------------------------------------------|--
Ab|--2--2----2--2----2--2--2----2----3p3v----|--

Stave 4:

Bb|------------------------------------------------------|--
Ab|------------------------------------------------------|--
Eb|------------------------------------------------------|--
Ab|------------------------------------------------------|--
Eb|---------------------------------------2--3--2--3p3v--|--
Ab|--2--2--2--2----2--2--2--2----2--3--5-----------------|--

http://www.guitartabcreator.com
Guitar Tab Creator is intended to store guitar tab created through the tool. It currently does not support in-line text editing. Any text you place in here will be lost. If you need to comment on your tab, please use the "Tab Notes" section located below.