rolling exercise 2

01234567891011121314151617181920212223
E
B
G
D
A
E
B
0 1 2 3 4 5 6 7 8 9 10 11 12 13 14 15 16 17 18 19 20 21 22 23
(/) Slide Up  (\) Slide Down  (h) Hammer On  (p) Pull Off  (b) Bend (r) Release (v) Vibrato

Stave 1:

E|-------------------------------------------------
B|-------------------------------------------------
G|-----------------------------------1---2---3---4-
D|-------------------1---2---3---4-1---2---3---4---
A|---1---2---3---4-1---2---3---4-------------------
E|-1---2---3---4-----------------------------------

Stave 2:

E|---1---2---3---4---2---3---4---5-----------------
B|-1---2---3---4---2---3---4---5-----2---3---4---5-
G|---------------------------------2---3---4---5---
D|-------------------------------------------------
A|-------------------------------------------------
E|-------------------------------------------------

							http://www.guitartabcreator.com
Chords

Instruments
{"strings":[[[".",".",".",".",".",".",".",".",".",".",".",".",".",".",".",".",".",".",".",".",".",".",".","."],[".",".",".",".",".",".",".",".",".",".",".",".",".",".",".",".",".",".",".",".",".",".",".","."],[".",".",".",".",".",".",".",".",".",".",".",".",".",".",".",".",".",1,".",2,".",3,".",4],[".",".",".",".",".",".",".",".",".",1,".",2,".",3,".",4,1,".",2,".",3,".",4,"."],[".",1,".",2,".",3,".",4,1,".",2,".",3,".",4,".",".",".",".",".",".",".",".","."],[1,".",2,".",3,".",4,".",".",".",".",".",".",".",".",".",".",".",".",".",".",".",".","."]],[[".",1,".",2,".",3,".",4,".",2,".",3,".",4,".",5,".",".",".",".",".",".",".","."],[1,".",2,".",3,".",4,".",2,".",3,".",4,".",5,".",".",2,".",3,".",4,".",5],[".",".",".",".",".",".",".",".",".",".",".",".",".",".",".",".",2,".",3,".",4,".",5,"."],[".",".",".",".",".",".",".",".",".",".",".",".",".",".",".",".",".",".",".",".",".",".",".","."],[".",".",".",".",".",".",".",".",".",".",".",".",".",".",".",".",".",".",".",".",".",".",".","."],[".",".",".",".",".",".",".",".",".",".",".",".",".",".",".",".",".",".",".",".",".",".",".","."]]],"numberofstrings":6,"notes":["E","B","G","D","A","E","B"],"capo":0,"stringnotes":["E4","B3","G3","D3","A2","E2"],"comments":["Stave 1:","Stave 2:"],"timing":[["W","W","W","W","W","W","W","W","W","W","W","W","W","W","W","W","W","W","W","W","W","W","W","W"],["W","W","W","W","W","W","W","W","W","W","W","W","W","W","W","W","W","W","W","W","W","W","W","W"]],"timingvisible":false,"tabcounter":24,"stave":1,"totalstaves":2,"instrument":"6guitar","selectedtuning":"6_standard","version":"13"}

Member for

2 weeks 1 day
Submitted by nenenenad on Sun, 2021-02-21 09:03