rolling exercise 1

01234567891011121314151617181920212223
E
B
G
D
A
E
B
0 1 2 3 4 5 6 7 8 9 10 11 12 13 14 15 16 17 18 19 20 21 22 23
(/) Slide Up  (\) Slide Down  (h) Hammer On  (p) Pull Off  (b) Bend (r) Release (v) Vibrato

Stave 1:

E|---------------------------------------------
B|---------------------------------------------
G|---------------------------------------------
D|---------------------------------------------
A|---1---2---3---4---2---3---4---5---3---4---5-
E|-1---2---3---4---2---3---4---5---3---4---5---

Stave 2:

E|-------------------------------------------------------------------------
B|-------------------------------------------------------------------------
G|-------------------------------------------------------------------------
D|----------------------------15----14----13----12----14----13----12----11-
A|----12----13----14----15-15----14----13----12----14----13----12----11----
E|-12----13----14----15----------------------------------------------------

Stave 3:

E|-------------------------------------------------
B|-------------------------------------------------
G|-------------------1---2---3---4---2---3---4---5-
D|---4---3---2---1-1---2---3---4---2---3---4---5---
A|-4---3---2---1-----------------------------------
E|-------------------------------------------------

							http://www.guitartabcreator.com
Chords

Instruments
{"strings":[[[".",".",".",".",".",".",".",".",".",".",".",".",".",".",".",".",".",".",".",".",".","."],[".",".",".",".",".",".",".",".",".",".",".",".",".",".",".",".",".",".",".",".",".","."],[".",".",".",".",".",".",".",".",".",".",".",".",".",".",".",".",".",".",".",".",".","."],[".",".",".",".",".",".",".",".",".",".",".",".",".",".",".",".",".",".",".",".",".","."],[".",1,".",2,".",3,".",4,".",2,".",3,".",4,".",5,".",3,".",4,".",5],[1,".",2,".",3,".",4,".",2,".",3,".",4,".",5,".",3,".",4,".",5,"."]],[[".",".",".",".",".",".",".",".",".",".",".",".",".",".",".",".",".",".",".",".",".",".",".","."],[".",".",".",".",".",".",".",".",".",".",".",".",".",".",".",".",".",".",".",".",".",".",".","."],[".",".",".",".",".",".",".",".",".",".",".",".",".",".",".",".",".",".",".",".",".",".",".","."],[".",".",".",".",".",".",".",".",".",15,".",14,".",13,".",12,".",14,".",13,".",12,".",11],[".",12,".",13,".",14,".",15,15,".",14,".",13,".",12,".",14,".",13,".",12,".",11,"."],[12,".",13,".",14,".",15,".",".",".",".",".",".",".",".",".",".",".",".",".",".",".",".","."]],[[".",".",".",".",".",".",".",".",".",".",".",".",".",".",".",".",".",".",".",".",".",".",".","."],[".",".",".",".",".",".",".",".",".",".",".",".",".",".",".",".",".",".",".",".",".",".",".","."],[".",".",".",".",".",".",".",".",".",1,".",2,".",3,".",4,".",2,".",3,".",4,".",5],[".",4,".",3,".",2,".",1,1,".",2,".",3,".",4,".",2,".",3,".",4,".",5,"."],[4,".",3,".",2,".",1,".",".",".",".",".",".",".",".",".",".",".",".",".",".",".",".","."],[".",".",".",".",".",".",".",".",".",".",".",".",".",".",".",".",".",".",".",".",".",".",".","."]]],"numberofstrings":6,"notes":["E","B","G","D","A","E","B"],"capo":0,"stringnotes":["E4","B3","G3","D3","A2","E2"],"comments":["Stave 1:","Stave 2:","Stave 3:"],"timing":[["W","W","W","W","W","W","W","W","W","W","W","W","W","W","W","W","W","W","W","W","W","W"],["W","W","W","W","W","W","W","W","W","W","W","W","W","W","W","W","W","W","W","W","W","W","W","W"],["W","W","W","W","W","W","W","W","W","W","W","W","W","W","W","W","W","W","W","W","W","W","W","W"]],"timingvisible":false,"tabcounter":24,"stave":2,"totalstaves":3,"instrument":"6guitar","selectedtuning":"6_standard","version":"13"}

Member for

1 week 5 days
Submitted by nenenenad on Sun, 2021-02-21 09:01