Sound will begin in 5 seconds

Lamborghini

Chords
01234567891011121314151617181920212223
E
B
G
D
A
E
B
0 1 2 3 4 5 6 7 8 9 10 11 12 13 14 15 16 17 18 19 20 21 22 23
Song Science #1: How Pros Use 6 Chords to Write Hit Songs
(/) Slide Up  (\) Slide Down  (h) Hammer On  (p) Pull Off  (b) Bend (r) Release (v) Vibrato

Stave 1:

E|--------------------------------------------------------------------------------------------------
B|--------------------------------------------------------------------------------------------------
G|--------------------------------------------------------------------------------------------------
D|--------------------5-----------------7--5--------------------------5-----------------------------
A|--------7--7--7--7-----7--------7--7--------7--5--------7--7--7--7-----7--------7--7--5-----------
E|--0--0--------------------0--0--------------------0--0--------------------0--0-----------7--6--5--

Stave 2:

E|--------------------------------------------------------------------------------------------------
B|--------------------------------------------------------------------------------------------------
G|--------------------------------------------------------------------------------------------------
D|--------9--9--9--9--5-----------9--9--7--5--------------9--9--9--9--5-----------9--9--------------
A|--------7--7--7--7-----7--------7--7--------7--5--------7--7--7--7-----7--------7--7--5-----------
E|--0--0--------------------0--0--------------------0--0--------------------0--0-----------7--6--5--

Stave 3:

E|---------------------------------------------------
B|---------------------------------------------------
G|--------------------------7b8b7-----7--------------
D|--------9--9--9--9--5--7---------9-----9--7h8h7h8--
A|--------7--7--7--7---------------------------------
E|--0--0---------------------------------------------

Stave 4:

E|------------------------------------------------------------------
B|------------------------------------------------------------------
G|------------------------------------------------------------------
D|-----------------------------3--2---------------------------------
A|-----------------------------1--0-----------------------------5v--
E|--0--0--3--2--1--0--0--0--0--------0--0--3--2--1--0--0--0--0------

Stave 5:

E|--------------
B|--------------
G|--------------
D|--------------
A|--2--5--8--7--
E|--0--3--6--5--

Stave 6:

E|--------------
B|--------------
G|--------------
D|-----7--------
A|--2--5--2--5--
E|--0-----0--3--

http://www.guitartabcreator.com
Guitar Tab Creator is intended to store guitar tab created through the tool. It currently does not support in-line text editing. Any text you place in here will be lost. If you need to comment on your tab, please use the "Tab Notes" section located below.