Sound will begin in 5 seconds

Kolinje

Chords
01234567891011121314151617181920212223
E
B
G
D
A
E
B
0 1 2 3 4 5 6 7 8 9 10 11 12 13 14 15 16 17 18 19 20 21 22 23
Song Science #1: How Pros Use 6 Chords to Write Hit Songs
(/) Slide Up  (\) Slide Down  (h) Hammer On  (p) Pull Off  (b) Bend (r) Release (v) Vibrato

Stave 1:

E|------------------------------------------------
B|------------------------------------------------
G|------------------------------------------------
D|------------------------------------------------
A|--2--2--5--5--7--7--8--8--9--9--12--12--14--14--
E|--0--0--3--3--5--5--6--6--7--7--10--10--12--12--

Stave 2:

E|------------------
B|------------------
G|------------------
D|------14----------
A|--14--12--12--14--
E|--12------10--12--

Stave 3:

E|------------------------------------------------------------------------------------------------------------
B|------------------------------------------------------------------------------------------------------------
G|------------------------------------------------------------------------------------------------------------
D|------------------------------------------------------------------------------------------------------------
A|--14--------14--14--12--12--------12--12--12--10--10--10--10--10--10--10--10--12b13b12--10--12--10--12--10--
E|--12--0--0--12--12--10--10--0--0--10--10--10----------------------------------------------------------------

Stave 4:

E|------------------------------------
B|------------------------------------
G|------------------------------------
D|------------------------------------
A|--12b13b12--10------10--------------
E|----------------12------12--11--10--

Stave 5:

E|----------------------------------------------------------------------------------------
B|----------------------------------------------------------------------------------------
G|----------------------------------------------------------------------------------------
D|----------------------------------------------------------------------------------------
A|--14--14-----14--14--12--12--12-----12--12--12--10--10-----10--10--9--9--9-----9--9--9--
E|--12--12--0--12--12--10--10--10--0--10--10--10--8---8---0--8---8---7--7--7--0--7--7--7--

Stave 6:

E|--------------------------------------------------------------------------------------
B|--------------------------------------------------------------------------------------
G|--------------------------------------------------------------------------------------
D|--------------------------------------------------------------------------------------
A|--14--14-----14--14--12--12--12-----12--12--12--10--10-----10--10-------------10--12--
E|--12--12--0--12--12--10--10--10--0--10--10--10--8---8---0--8---8---0--10--12----------

http://www.guitartabcreator.com
Guitar Tab Creator is intended to store guitar tab created through the tool. It currently does not support in-line text editing. Any text you place in here will be lost. If you need to comment on your tab, please use the "Tab Notes" section located below.