Sound will begin in 5 seconds

Bio sam ti prvi

Chords
01234567891011121314151617181920212223
E
B
G
D
A
E
B
0 1 2 3 4 5 6 7 8 9 10 11 12 13 14 15 16 17 18 19 20 21 22 23
Song Science #1: How Pros Use 6 Chords to Write Hit Songs
(/) Slide Up  (\) Slide Down  (h) Hammer On  (p) Pull Off  (b) Bend (r) Release (v) Vibrato

Stave 1:

E|---------------------------------------------------------------------------------------
B|---------------------------------------------------------------------------------------
G|---------------------------------------------------------------------------------------
D|-----------------------------------------------------------7--6--5h6p5-----5-----------
A|--------------5--7-----------------5--7--------------5--7---------------7-----7--6--5--
E|--5--8--5--8--------5--5--8--5--8--------5--8--5--8------------------------------------

Stave 2:

E|--------------------------------------------
B|--------------------------------------------
G|--------------------------------------------
D|--------------------------------------------
A|--7--7--7--7--7--7--7--7--7--7-----5--6--7--
E|--5--5--5--5--5--5--5--5--5--5--8-----------

Stave 3:

E|--------------------------------------------
B|--------------------------------------------
G|--------------------------------------------
D|--------------------------------------------
A|--5--5--5--5--5--5--5--5--5--5--3-----3-----
E|--3--3--3--3--3--3--3--3--3--3-----5-----5--

Stave 4:

E|-------------------------------------------------------------------------------
B|-------------------------------------------------------------------------------
G|-------------------------------------------------------------------------------
D|--7--7--7--7-------------------------------------------------------------------
A|--5--5--5--5--7--10--10--10--10--10--10--10--10--7--7--7--8--7--7--7--8--8--7--
E|--------------5--8---8---8---8---8---8---8---8---5--5--5--6--5--5--5--6--6--5--

Stave 5:

E|-------------------------------------------------------------------------
B|-------------------------------------------------------------------------
G|-------------------------------------------------------------------------
D|--7--7--7--7-------------------------------------------------------------
A|--5--5--5--5--7--10--10--10--10--10--10--10--10--7--7--7--7--7--7--7--7--
E|--------------5--8---8---8---8---8---8---8---8---5--5--5--5--5--5--5--5--

Stave 6:

E|-----------------------------------------------------------------------------
B|-----------------------------------------------------------------------------
G|-----------------------------------------------------------------------------
D|-----------5-----------------------------------------------------------------
A|--7--7--7--3--7--5--5--5--5--5--5--5--5--3--3--3--3--3--3--2--2--2--2--5--6--
E|--5--5--5-----5--3--3--3--3--3--3--3--3--1--1--1--1--1--1--0--0--0--0--3--4--

Stave 7:

E|-----------------------------------------------------------------------------------
B|-----------------------------------------------------------------------------------
G|-----------------------------------------------------------------------------------
D|-----------------------------------------------------------------------------------
A|-----7-----7-----7--------5-----5-----5--------3-----3-----3--------2-----2-----2--
E|--5-----5-----5-----3--3-----3-----3-----1--1-----1-----1-----0--0-----0-----0-----

Stave 8:

E|--------------------------------------------------------------------------------------
B|--------------------------------------------------------------------------------------
G|--------------------------------------------------------------------------------------
D|--------------------------------------------------------------------------------------
A|-----7-----7-----7--------5-----5-----5--------3-----3-----3--2--2--2--2--2--2--2--2--
E|--5-----5-----5-----3--3-----3-----3-----1--1-----1-----1-----0--0--0--0--0--0--0--0--

Stave 9:

E|-----------------------------------------
B|-----------------------------------------
G|-----------------------------------------
D|-----5-----------------------------------
A|--7--3--7--5--3--2--5--7--7--7--7--7--7--
E|--5-----5--3--1--0--3--5--5--5--5--5--5--

Stave 10:

E|--------------------
B|--------------------
G|--------------------
D|--------------------
A|--7--5--3--2--5--6--
E|--5--3--1--0--3--4--

http://www.guitartabcreator.com
Guitar Tab Creator is intended to store guitar tab created through the tool. It currently does not support in-line text editing. Any text you place in here will be lost. If you need to comment on your tab, please use the "Tab Notes" section located below.