Sound will begin in 5 seconds

Great escape Bass tab

01234567891011121314151617181920212223
E
B
G
D
A
E
B
0 1 2 3 4 5 6 7 8 9 10 11 12 13 14 15 16 17 18 19 20 21 22 23
Song Science #1: How Pros Use 6 Chords to Write Hit Songs
(/) Slide Up  (\) Slide Down  (h) Hammer On  (p) Pull Off  (b) Bend (r) Release (v) Vibrato

Stave 1:

E|-----------------------------------------------------------------------------------------------------------
B|-----------------------------------------------------------------------------------------------------------
G|-----------------------------------------------------------------------------------------------------------
D|-----------------------------------------------------------------------------------------------------------
A|--9--9--9--9--9--9--9--9-----8--8--8--8--8--8--8--8-----7--7--7--7--7--7--7--7-----6--6--6--6--6--6--6--6--
E|-----------------------------------------------------------------------------------------------------------

Stave 2:

E|--------------------------------------------------------------------------------------------------------
B|--------------------------------------------------------------------------------------------------------
G|--------------------------------------------------------------------------------------------------------
D|--------------------------------------------------------------------------------------------------------
A|--5--5--5--5--5--5--5--5-----4--4--4--4--4--4--4--4-----3--3--3--3-----------3--4--4--4--4-----8--8--9--
E|-----------------------------------------------------------------------4--------------------------------

Stave 3:

E|-------------------------------------------------------
B|-------------------------------------------------------
G|-------------------------------------------------------
D|-------------------------------------------------------
A|---------------------5--5--5---------------------------
E|--2\0--------2\0-----------------2\0--------2\0--------

Stave 4:

E|--
B|--
G|--
D|--
A|--
E|--

Stave 5:

E|-----------------------------------------------------------------------------------------
B|-----------------------------------------------------------------------------------------
G|-----------------------------------------------------------------------------------------
D|-----------------------------------------------------------------------------------------
A|--2--2--4--4--5--5--7--7--9--9--9--9--9--9--9--9-----2--2--4--4--5--5--7--7--9--9--9--9--
E|-----------------------------------------------------------------------------------------

Stave 6:

E|--------------------------------------------------------------------------
B|--------------------------------------------------------------------------
G|--------------------------------------------------------------------------
D|--------------------------------------------------------------------------
A|--2--2--4--4--5--5--7--7--9--9--9--9--9--9--9--9-----2--2--4--4--5--5--7--
E|--------------------------------------------------------------------------

Stave 7:

E|-----------------------------------------------------------------------------------------------------------
B|-----------------------------------------------------------------------------------------------------------
G|-----------------------------------------------------------------------------------------------------------
D|-----------------------------------------------------------------------------------------------------------
A|-----------------------------------------------------------------------------------------------------------
E|--3--3--3--3--3--3--3--3--7--7--7--7--7--7--7--7-----3--3--3--3--3--3--3--3--7--7--7--7--7--7--7--7--7--7--

Stave 8:

E|--------------------------------------------------------------------------------------------
B|--------------------------------------------------------------------------------------------
G|--------------------------------------------------------------------------------------------
D|--------------------------------------------------------------------------------------------
A|--------------------------------------4--4--5--5-----7--7--7--7--9--9--9--9-----------------
E|--3--3--3--3--3--3--3--3--7--7--7--7-----------------------------------------7-----5-----3--

http://www.guitartabcreator.com
Guitar Tab Creator is intended to store guitar tab created through the tool. It currently does not support in-line text editing. Any text you place in here will be lost. If you need to comment on your tab, please use the "Tab Notes" section located below.