Sound will begin in 5 seconds

mop brano 3

01234567891011121314151617181920212223
E
B
G
D
A
E
B
0 1 2 3 4 5 6 7 8 9 10 11 12 13 14 15 16 17 18 19 20 21 22 23
Song Science #1: How Pros Use 6 Chords to Write Hit Songs
(/) Slide Up  (\) Slide Down  (h) Hammer On  (p) Pull Off  (b) Bend (r) Release (v) Vibrato

Stave 1:

G|-----------------------------|-------------------------------
D|-----------------------------|-------------------------------
A|-----------------------------|-------------------------------
E|--7-----------7--6-----------|-------------------------------
B|-----0--5--8--------5--5--7--|--3/5--5--5\3--3--3/5--5--5\3--

Stave 2:

G|--------------------------|--------------|--------------------
D|--------------------------|--------------|--------------------
A|--------------------------|--------------|--------------------
E|--7-----------7--6--------|--7-----------|--------------------
B|-----0--5--8--------7--8--|-----0--5--8--|--3--3--5--3--3--1--

Stave 3:

G|--------------------
D|--------------------
A|--------------------
E|--------------------
B|--3--3--5--3--3--1--

Stave 4:

G|--------------------------|--------------|--------------------
D|--------------------------|--------------|--------------------
A|--5-----------5--4--------|--5-----------|--------------------
E|-----------6--------5--6--|-----------6--|--------------------
B|-----0--3-----------------|-----0--3-----|--3--3--5--3--3--1--

Stave 5:

G|----------------------------------------------------------------------
D|----------------------------------------------------------------------
A|----------------------------------------------------------------------
E|-------------------------------------4--4--4--4--4--4-----------------
B|--1/3--3--0--0--0--1--1--1--1--1--1--------------------2--2--2--2--2--

Stave 6:

G|--------------------------------------------------------------------------------
D|--------------------------------------------------------------------------------
A|--------------------------------------------------------------------------------
E|--------------------------------------------------------------------------------
B|--5--0--0--0--0--3--0--0--0--0--0--0--6--5--0--0--0--0--3--0--0--0--0--0--0--6--

Stave 7:

G|----------------------------------|--------------------------------|--
D|----------------------------------|--------------------------------|--
A|----------------------------------|--------------------------------|--
E|----------------------------------|--------------------------------|--
B|--1/3--3--0--0--0--1--1--1--1--1--|--3--3--5--3--3--1--3--3--5--1--|--

http://www.guitartabcreator.com
Guitar Tab Creator is intended to store guitar tab created through the tool. It currently does not support in-line text editing. Any text you place in here will be lost. If you need to comment on your tab, please use the "Tab Notes" section located below.