Sound will begin in 5 seconds

MOP 7

01234567891011121314151617181920212223
E
B
G
D
A
E
B
0 1 2 3 4 5 6 7 8 9 10 11 12 13 14 15 16 17 18 19 20 21 22 23
Song Science #1: How Pros Use 6 Chords to Write Hit Songs
(/) Slide Up  (\) Slide Down  (h) Hammer On  (p) Pull Off  (b) Bend (r) Release (v) Vibrato

Stave 1:

G|--------------------------
D|--------------------------
A|--------------------------
E|--2-----------------2-----
B|-----3--2--1--2--1-----1--

Stave 2:

G|--------------------------------------------------------------------------
D|--------------------------------------------------------------------------
A|--------------------------------------------------------------------------
E|--5--5--2--2--------------5--5--2--2--------------2-----------2-----------
B|--------------5--5--2--2--------------5--5--2--2-----3--2--3-----3--2--3--

Stave 3:

G|--------------------------
D|--------------------------
A|--------------5--4--2--3--
E|--0--2--0--2--------------
B|--------------------------

Stave 4:

G|--------------------------|-----------------------------------------|-----------------------------------
D|--------------------------|-----------------------------------------|-----------------------------------
A|--------------------------|-----------------------------------------|-----------------------------------
E|--2-----------2-----------|--------------2--2--2--2--2--2--2--2--2--|--------------1--1--1--1--1--1--1--
B|-----3--2--3-----3--2--3--|--0--3--2--3-----------------------------|--0--3--2--3-----------------------

Stave 5:

G|--------------------------|--------------------------------------
D|--------------------------|--------------------------------------
A|--------------------------|--------------------------------------
E|--------------------------|--------------------------------------
B|--4--3--2--4--3--2--3--2--|--6--6--6--5--5--5--8--8--8--8--8--8--

Stave 6:

G|--------------------------------------|--------------------------------------------------
D|--------------------------------------|--------------------------------------------------
A|--------------------------------------|--------------------------3--3--3--3--2--2--2--2--
E|--------------------------------------|--------------4--4--4--4--------------------------
B|--0--3--6--0--2--5--0--3--6--0--2--5--|--5--5--5--5--------------------------------------

Stave 7:

G|--------------------------------
D|--------------------------------
A|--------------------------------
E|--2--2--2--2--2--2--------------
B|--------------------0--0--0--0--

Stave 8:

G|-----------------------------------------------------------------------------
D|-----------------------------------------------------------------------------
A|-----------------------------------------------------------------------------
E|--------------2--2--2--2--2--2--2--2--2--------------1--1--1--1--1--1--1--1--
B|--0--3--2--3-----------------------------0--3--2--3--------------------------

http://www.guitartabcreator.com
Guitar Tab Creator is intended to store guitar tab created through the tool. It currently does not support in-line text editing. Any text you place in here will be lost. If you need to comment on your tab, please use the "Tab Notes" section located below.