Sound will begin in 5 seconds

HUNG GUTTED AND DEGLOVED

01234567891011121314151617181920212223
E
B
G
D
A
E
B
0 1 2 3 4 5 6 7 8 9 10 11 12 13 14 15 16 17 18 19 20 21 22 23
Song Science #1: How Pros Use 6 Chords to Write Hit Songs
(/) Slide Up  (\) Slide Down  (h) Hammer On  (p) Pull Off  (b) Bend (r) Release (v) Vibrato

Stave 1:

F|----------------------------------------------------
C|----------------------------------------------------
G|--9--7-----7--9--7-----7--9--7----------------------
D|--------9-----------9-----------10--9--7------------
A|------------------------------------------10--9--7--

Stave 2:

F|-----------
C|-----------
G|-----------
D|--0--2--3--
A|-----------

Stave 3:

F|--------------------------------------------------------------
C|--------------------------------------------------------------
G|--------------------------------------7--5-----5--8--5-----5--
D|--3--2--3--5--3--2--3--5--3--2--3--5--------7-----------8-----
A|--------------------------------------------------------------

Stave 4:

F|----------------------------------------------------------------------------
C|----------------------------------------------------------------------------
G|--------------------------7--5-----5--8--5-----5--9--7-----7--10--7------7--
D|--3--2--3--5--3--2--3--5--------7-----------8-----------9------------10-----
A|----------------------------------------------------------------------------

Stave 5:

F|---------------------------------------------------------------------------------------------
C|---------------------------------------------------------------------------------------------
G|---------------------------------------------------------------------------------------------
D|-----------------------------------------7--8--7--------------------------7--8--7--10--7--8--
A|--7--5--7--8--7--5--7--8--7--5--7--8--7-----------7--5--7--8--7--5--7--8---------------------

Stave 6:

F|----------------------------------------------------
C|----------------------------------------------------
G|--9--7-----7--9--7-----7--9--7----------------------
D|--------9-----------9-----------10--9--7------------
A|------------------------------------------10--9--7--

Stave 7:

F|---------------------
C|---------------------
G|---------------------
D|--7--8--7--10--7--8--
A|---------------------

http://www.guitartabcreator.com
Guitar Tab Creator is intended to store guitar tab created through the tool. It currently does not support in-line text editing. Any text you place in here will be lost. If you need to comment on your tab, please use the "Tab Notes" section located below.