Sound will begin in 5 seconds

CRUENTATIO CADAVERIS

01234567891011121314151617181920212223
E
B
G
D
A
E
B
0 1 2 3 4 5 6 7 8 9 10 11 12 13 14 15 16 17 18 19 20 21 22 23
Song Science #1: How Pros Use 6 Chords to Write Hit Songs
(/) Slide Up  (\) Slide Down  (h) Hammer On  (p) Pull Off  (b) Bend (r) Release (v) Vibrato

Stave 1:

C|--------------------------------------------
G|--------------------------------------------
D|--------------------------5-----------5-----
A|--3--2--3--2--3--2--3--2-----2--3--2-----2--

Stave 2:

C|--------------------------------------------------------------------------
G|--------------------------------------------------------------------------
D|--5--5--5--5--5--4--5--5--5--5--5--4--5--5--5--5--5--4--5--5--5--5--5--4--
A|--------------------------------------------------------------------------

Stave 3:

C|--------------------------------------------------------------------------
G|--------------------------------------------------------------------------
D|-----------------8-----------------8-----------------8-----------------8--
A|--2--3--2--0--5-----2--3--2--0--5-----2--3--2--0--5-----2--3--2--0--5-----

Stave 4:

C|-----------------------------------------------------------------------------------------------------
G|-----------6-----------------6-----------------6-----------------6-----------------4-----------------
D|-----6--7-----7--6-----6--7-----7--6-----6--7-----7--6-----6--7-----7--6-----4--5-----5--4-----4--5--
A|--7-----------------7-----------------7-----------------7-----------------5-----------------5--------

Stave 5:

C|-----------------------------------------------
G|--4-----------------4-----------------4--------
D|-----5--4-----4--5-----5--4-----4--5-----5--4--
A|-----------5-----------------5-----------------

Stave 6:

C|-----------------------
G|-----------------------
D|--------------------3--
A|--0--0--1--1--1--1-----

Stave 7:

C|-----------------------
G|-----------------------
D|--------------------7--
A|--0--0--5--5--5--5-----

Stave 8:

C|--------------------------
G|--------------------------
D|--7--5--3--2--3--2--3--2--
A|--------------------------

Stave 9:

C|-----------------------------------------------------------------------
G|--------------------------------------------------------------4--5--5--
D|-----------------------------------------------------5--5--5-----------
A|--0--0--0--0--0--0--0--3--2--3--5--0--0--0--0--0--0--------------------

Stave 10:

C|-----------------------------------------------
G|-----------------------------------------------
D|--------------------------------------------4--
A|--3--2--3--2--3--2--3--2--3--2--3--2--3--2-----

Stave 11:

C|-----------------------------
G|-----------------------------
D|--------------------2--2--4--
A|--3--2--3--2--3--2-----------

Stave 12:

C|----------------
G|----------------
D|----------------
A|--0--0--13--13--

http://www.guitartabcreator.com
Guitar Tab Creator is intended to store guitar tab created through the tool. It currently does not support in-line text editing. Any text you place in here will be lost. If you need to comment on your tab, please use the "Tab Notes" section located below.